wreckingpit - The Psychobilly Homepage
The Psychobilly Homepage December 15, 2017, 12:27 am
> Home > Tabs > Reverend Horton Heat - Jimbo Song
MAIN MENU
[Bands]
[Concerts]
[Flyers]
[Forum]
[Gallery]
[Links]
[Lyrics]
[News]
[Pictures]
[Reviews]
[Shop]
[Sounds]
[Tabs]
[Tattoos]

Search
wreckingpit.com:

PSYCHOBILLY TAB

Reverend Horton Heat - Jimbo Song

Tabbed by: Shawn
Instrument: guitar


Intro
G:---------------------------------------------------------------
D:---------------------------------------------------------------
A:-4-4-4-4-4-----------------------------------------------------
E:------------2-4------------------------------------------------

Part 1
G:---------------------------------------------------------------
D:---------------------------------------------------------------
A:--------------------------------------2----4-4-4-4-4-----------
E:-5-5-5-5-5-5-5-5-5-5-5-5-5-5-5-5--5-0---4-------------2-4------


G:---------------------------------------------------------------
D:---------------------------------------------------------------
A:-4-4-4-4-4-----------------------------------------------------
E:------------2-4------------------------------------------------

Part 2
G:---------------------------------------------------------------
D:---------------------------------------------------------------
A:-6-6-6-6-4-4-4-4-3-3-3-3-1-1-1-1--6-6-6-6-4-4-4-4-2-2-2--------
E:---------------------------------------------------------------

  AMAZON PICKS


Wreckingpit - The Psychobilly Homepage December 2017
[Credits] [Link] [Contact] [FAQ]