wreckingpit - The Psychobilly Homepage
The Psychobilly Homepage December 14, 2017, 8:39 pm
> Home > Tabs > Hillbilly Hellcats - Dead Man's Party
MAIN MENU
[Bands]
[Concerts]
[Flyers]
[Forum]
[Gallery]
[Links]
[Lyrics]
[News]
[Pictures]
[Reviews]
[Shop]
[Sounds]
[Tabs]
[Tattoos]

Search
wreckingpit.com:

PSYCHOBILLY TAB

Hillbilly Hellcats - Dead Man's Party

Tabbed by: GOT RHYTHM
Instrument: guitar


Intro
G:---------------------------------------------------------------
D:---------------------------------------------------------------
A:----2--11--00-----2--11--00-----2------------------------------
E:-03--3---2---1-03--3---2---1-03--33-2-1-0----------------------

Part 1
G:---------------------------------------------------------------
D:---------------------------------------------------------------
A:----2---------------------------0-3-0-3-00-3-0-3---------------
E:-03--33-2-1-0--0-3-0-3-00-3-0-3--------------------------------

Part 2
G:---------------------------------------------------------------
D:----------------------2----------------------------------------
A:------------------0-3--3-00-3-03-------------------------------
E:-0-3-0-3-00-3-0-3----------------------------------------------


  AMAZON PICKS


Wreckingpit - The Psychobilly Homepage December 2017
[Credits] [Link] [Contact] [FAQ]