wreckingpit - The Psychobilly Homepage [ Advertisement Info ]
The Psychobilly Homepage December 16, 2017, 5:03 am
> Home > Tabs > Reverend Horton Heat - Suicide Doors
MAIN MENU
[Bands]
[Concerts]
[Flyers]
[Forum]
[Gallery]
[Links]
[Lyrics]
[News]
[Pictures]
[Reviews]
[Shop]
[Sounds]
[Tabs]
[Tattoos]

Search
wreckingpit.com:

PSYCHOBILLY TAB

Reverend Horton Heat - Suicide Doors

Tabbed by: GOT RHYTHM
Instrument: guitar


Intro A G
G:---------------------------------------------------------------
D:---------------------------------------------------------------
A:5-0-5-0-5-0-------5--------------------------------------------
E:-------------3--3----------------------------------------------

Part 1 D D G G G D D D G G G D A D A D A
G:---------------------------------------------------------------
D:-------5---5----------------5---5---5--------------------------
A:--5--3---3----5---5---5--3---3---3------5---5---5---5-0-5-0-5-0
E:3-----------3---3---3-----------------3---3---3----------------

Part 2
G:---------------------------------------------------------------
D:--------------------------------2-3-4-5-3-2-0--2-3-4-5-3-2-0---
A:-2-3-4-5-3-2-0--2-3-4-5-3-2-0--3--------------3----------------
E:3--------------3-----------------------------------------------

  AMAZON PICKS


Wreckingpit - The Psychobilly Homepage December 2017
[Credits] [Link] [Contact] [FAQ]