wreckingpit - The Psychobilly Homepage
The Psychobilly Homepage December 13, 2017, 8:38 am
> Home > Tabs > Horrorpops - Girl in a cage
MAIN MENU
[Bands]
[Concerts]
[Flyers]
[Forum]
[Gallery]
[Links]
[Lyrics]
[News]
[Pictures]
[Reviews]
[Shop]
[Sounds]
[Tabs]
[Tattoos]

Search
wreckingpit.com:

PSYCHOBILLY TAB

Horrorpops - Girl in a cage


Instrument: bass


Intro
g------------------------------------------------------
d-----2-----0-4-0-----2-----0-4------------------------
a-0-3---3-2-------0-3---3-2----------------------------
e------------------------------------------------------

Verse numerous times
g------------------------------------------------------
d-----2-----0-4-0-----2-----0-4-0----------------------
a-0-3---3-2-------0-3---3-2----------------------------
e------------------------------------------------------


chorus and Bridge
g------------------------------------------------------
d---------2-2-2-2--------------------------------------
a-3-3-3-3---------1-1-1-1-1-1-1-1-(0)ending------------
e------------------------------------------------------

  AMAZON PICKS


Wreckingpit - The Psychobilly Homepage December 2017
[Credits] [Link] [Contact] [FAQ]