wreckingpit - The Psychobilly Homepage
The Psychobilly Homepage December 15, 2017, 9:51 am
> Home > Tabs > Nekromantix - Last Night I Saved An Angel
MAIN MENU
[Bands]
[Concerts]
[Flyers]
[Forum]
[Gallery]
[Links]
[Lyrics]
[News]
[Pictures]
[Reviews]
[Shop]
[Sounds]
[Tabs]
[Tattoos]

Search
wreckingpit.com:

PSYCHOBILLY TAB

Nekromantix - Last Night I Saved An Angel

Tabbed by: Metallicaslayer22
Instrument: bass

Album: Demons Are A Girl's Best Friend
Bassist: Kim Nekroman
Tuning (E,A,D,G)


Intro

G--------0-00-0--------------

D-0-00-0---------------------

A---------------0-00-00-00-0-

E---------------------------- x's 3



Verse

G--------0-00-0--------------

D-0-00-0---------------------

A---------------0-00-00-00-0-

E---------------------------- x's 3



G--------0-00-0-----------------

D-0-00-0----------------------0-

A---------------0-00-00-2-3-4---

E-------------------------------



Chorus x's 2

G----------00000000----------------------

D-00000000-------------------------------

A-------------------00000000-11-22-33-44-

E----------------------------------------



G----------00000000----------00----------

D-00000000----------------------33-22-11-

A-------------------00000000-------------

E----------------------------------------



Verse

G--------0-00-0--------------

D-0-00-0---------------------

A---------------0-00-00-00-0-

E---------------------------- x's 3



G--------0-00-0-----------------

D-0-00-0----------------------0-

A---------------0-00-00-2-3-4---

E-------------------------------



Chorus x's 2

G----------00000000----------------------

D-00000000-------------------------------

A-------------------00000000-11-22-33-44-

E----------------------------------------



G----------00000000----------00----------

D-00000000----------------------33-22-11-

A-------------------00000000-------------

E----------------------------------------



Bridge

G---------------------------------

D--3-33-3--2-22-2--0-00-00-00-0---

A---------------------------------

E--------------------------------- x's 2



G------------------------------------

D-33333333-22222222-0000000000000000-

A------------------------------------

E------------------------------------



G---------------------------------

D-33333333-22222222-------------0-

A-------------------11-22-33-44---

E---------------------------------



Chorus x's 2

G----------00000000----------------------

D-00000000-------------------------------

A-------------------00000000-11-22-33-44-

E----------------------------------------



G----------00000000----------00----------

D-00000000----------------------33-22-11-

A-------------------00000000-------------

E----------------------------------------



Outro

G----------00000000----------------------

D-00000000-------------------------------

A-------------------00000000-11-22-33-44-

E----------------------------------------



G----------00000000----------00------------

D-00000000----------------------33-22-11-0-

A-------------------00000000---------------

E------------------------------------------

  AMAZON PICKS


Wreckingpit - The Psychobilly Homepage December 2017
[Credits] [Link] [Contact] [FAQ]