wreckingpit - The Psychobilly Homepage
The Psychobilly Homepage December 17, 2017, 4:00 am
> Home > Tabs > Nekromantix - Love At First Bite
MAIN MENU
[Bands]
[Concerts]
[Flyers]
[Forum]
[Gallery]
[Links]
[Lyrics]
[News]
[Pictures]
[Reviews]
[Shop]
[Sounds]
[Tabs]
[Tattoos]

Search
wreckingpit.com:

PSYCHOBILLY TAB

Nekromantix - Love At First Bite

Tabbed by: metallicaslayer22
Instrument: bass

Album: Demons Are A Girl's Best Friend
Bassist: Kim Nekroman
Tuning (E,A,D,G)


r= ring

h= hammer on

Verse

G-----------------------------------------------------------------

D-0-0-------------0-0-------------0-0-------------0-0-------------

A-----1-1-0-0-0-0-----1-1-0-0-0-0-----1-1-0-0-0-0-----1-1-0-------

E-----------------------------------------------------------3-1-0- x's 3



Chorus

G---------------------------------------------------2-----------------------

D-----------------0-0-0-0-0-0-0-------------------0---0-------4---4---------

A-1---1---3-3-3-3---------------3-1---1---3---3---------0---2---2---1---1---

E---1---1---------------------------1---1---3---3---------------------1---1-



G-----------2-------------------------------

D---------0---0---------------------------0-

A-3---3---------0-2---2---1---1---3-3-3-3---

E---3---3-----------2---2---1---1-----------



Verse

G-----------------------------------------------------------------

D-0-0-------------0-0-------------0-0-------------0-0-------------

A-----1-1-0-0-0-0-----1-1-0-0-0-0-----1-1-0-0-0-0-----1-1-0-------

E-----------------------------------------------------------3-1-0- x's 3



Chorus

G---------------------------------------------------2-----------------------

D-----------------0-0-0-0-0-0-0-------------------0---0-------4---4---------

A-1---1---3-3-3-3---------------3-1---1---3---3---------0---2---2---1-1-1-1-

E---1---1---------------------------1---1---3---3---------------------------



G-------------------------------------------

D---------0-0-0-0-------------------------0-

A-3-3-3-3---------2---2---1-1-1-1-3-3-3-3---

E-------------------2---2-------------------



Solo

G-----------------------------------------------------------------

D-0-0-------------0-0-------------0-0-------------0-0-------------

A-----1-1-0-0-0-0-----1-1-0-0-0-0-----1-1-0-0-0-0-----1-1-0-------

E-----------------------------------------------------------3-1-0-



Chorus

G---------------------------------------------------2---2------------------

D-----------------0---0---0---0-------------------0---0------4-------------

A-1-1-1-1-3-3-3-3---0---0---0---3-1---1---3---3------------2---2---1-1-1-1-

E-----------------------------------1---1---3---3----------------2---------



G-----------2---------------------------------0-2-3-4-5-6-

D---------0---0---------------------------0-4-------------

A-3-3-3-3-------0-2---2---1-1-1-1-3-3-3-3-----------------

E-------------------2---2---------------------------------



Outro

G-------------------------------------------------------------------------

D-----------------0---0---0-4---------------------0---0-----4---4---------

A-1-1-1-1-3-3-3-3---0---0-----3-1-1---1---3---3-----0---0-2---2---1---1---

E-----------------------------------1---1---3---3-------------------1---1-



G---------------------------------------------------

D---------0-0-0-0-------------------------0r------0-

A-3-3-3-3---------2---2---1-1-1---3---3-------0h2---

E-------------------2---2-------1---3---3-----------

  AMAZON PICKS


Wreckingpit - The Psychobilly Homepage December 2017
[Credits] [Link] [Contact] [FAQ]