wreckingpit - The Psychobilly Homepage
The Psychobilly Homepage December 18, 2017, 6:43 am
> Home > Tabs > Cramps, The - What's Inside A Girl
MAIN MENU
[Bands]
[Concerts]
[Flyers]
[Forum]
[Gallery]
[Links]
[Lyrics]
[News]
[Pictures]
[Reviews]
[Shop]
[Sounds]
[Tabs]
[Tattoos]

Search
wreckingpit.com:

PSYCHOBILLY TAB

Cramps, The - What's Inside A Girl

Tabbed by: Johnny Hound
Instrument: guitar

E|--------------------------------------------------------------------------------
B|--------------------------------------------------------------------------------
G|--------------------------------------------------------------------------------
D|------2------2--------2-2-------2-2--------2-2---------2-2--------2-2--
A|--0------0------0-0-------0-0--------0-0--------0-0---------0-0--------
E|--------------------------------------------------------------------------------

E|---------------------------------------------------------------
B|-----------------------5-5--4-4--1-1-----------------------
G|-----------------2-2-------------------2-2-2-0-2-2-2-2--
D|---------2-2--------------------------------------------------
A|--0-0---------------------------------------------------------
E|---------------------------------------------------------------

E|----------------------------------------------------------------------------------------------
B|--------5-5--4-4--1-1--------------------3-3--1-1--3-3--1-1-3-3-3-3-3-3-1-1--
G|--2-2-------------------2-2-2-0-2-2-2-2-----------------------------------------------
D|----------------------------------------------------------------------------------------------
A|-----------------------------------------------------------------------------------------------
E|-----------------------------------------------------------------------------------------------

E|------------------------------------------------------------------------------------------
B|--------5-5--4-4--1-1---------------------------------------1-1-3-3-3-1-3-3-1--
G|--2-2------------------2-2-2-0-2-2-2-2---------0-0--2-2-------------------------
D|----------------------------------------------2-2-----------------------------------------
A|---------------------------------------------------------------------------------------------
E|-----------------------------------------------------------------------------------------------

VERSE
The verse follows this pattern A D A E A then repeats.
Here are the riffs to play for each.

A RIFF

E|-----------------------------------------|
B|-----------------------------------------|
G|-----------------------------------------|
D|-----2-2------2-2-----2-2------2-2-| (repeat till change to D )
A|--0--------0--------0---------0-------|
E|-----------------------------------------|

D RIFF

E|--------------------------------------------
B|-------------------------------------------
G|-----2-2----2-2------1-1--0-0--------
D|--0------0--------0--------------3-3--- (from here go back to A, then
A|----------------------------------------- from A to E)
E|-----------------------------------------

E RIFF

E|--------------------------------------------------|
B|-------------------------------------------------|
G|-------------------------------------------------|
D|-------------------------------------------------|
A|--1/2-2-2--------------1/2-2-2-------------|
E|-------------3--0-0-0-------------0-0-0-0--|

Repeat Cycle (ADAEA)
Play Intro
Play Verse


BRIDGE
----------
whatcha got, whatcha got....
(for this part just play this progression with power chords A D A E A)

Play VERSE
Play BRIDGE

BREAK/SOLO
---------------
A riff
E|----------------------------------------------------|
B|----------------------------------------------------|
G|--2-2-2--0-0--2-2-2--0-0--2-2-2--0-0--2-|
D|--2-2-2--0-0--2-2-2--0-0--2-2-2--0-0--2-| (X2)
A|----------------------------------------------------|
E|----------------------------------------------------|

D riff
E|-----------------------------------------------------|
B|--3-3-3--1-1--3-3-3--1-1--3-3-3--1-1--3--|
G|--2-2-2--0-0--2-2-2--0-0--2-2-2--0-0--2--|
D|-----------------------------------------------------| (repeat A riff,
then Go
A|-----------------------------------------------------| to E riff)
E|-----------------------------------------------------|

E riff
E|-----------------------------------------------------------|
B|-----------------------------------------------------------|
G|-----------1-1---1--1---1--1-----2-2--2-2--2-2----|
D|------2----2-2---2--2---2--2-----2-2--2-2--2-2----|
A|----2------2-2---2--2---2--2-----0-0--0-0--0-0----|
E|--0--------------------------------------------------------|

Play BRIDGE


Thats all! Herese the song structure

INTRO
VERSE
INTRO
VERSE
BRIDGE
VERSE
BRIDGE
SOLO
BRIDGE

Enjoy!

  AMAZON PICKS


Wreckingpit - The Psychobilly Homepage December 2017
[Credits] [Link] [Contact] [FAQ]