wreckingpit - The Psychobilly Homepage [ Advertisement Info ]
The Psychobilly Homepage December 16, 2017, 6:55 am
> Home > Tabs > Kings of Nuthin' - Nuthin to Lose
MAIN MENU
[Bands]
[Concerts]
[Flyers]
[Forum]
[Gallery]
[Links]
[Lyrics]
[News]
[Pictures]
[Reviews]
[Shop]
[Sounds]
[Tabs]
[Tattoos]

Search
wreckingpit.com:

PSYCHOBILLY TAB

Kings of Nuthin' - Nuthin to Lose

Tabbed by: Kevin Lucky
Emailaddress: levingurt@yahoo.com
Homepage: http://www.theluckies.tk
Instrument: bass

This is the general gist of the song, listen to it to get the rythem. I might be wrong but no one else is submitting Kings of Nuthin tabs... So its a start...

g|------------------------------------------------------------------------|
d|-------------------2-----5-----2------------------2------5------2-------|
a|--0--2--3--5----------------------0--2--3--5----------------------------|
e|------------------------------------------------------------------------|repeat
verse

g|------------------------------------------------------------------------|
d|-------------------------2---5------------------------------------------|
a|--0--2--3--5-5-5-5------------------------------------------------------|
e|------------------------------------------------------------------------|
bridge

g|--------------------------------------------------------------------------------------|
d|---5-------2----------------------------------5-------2-------------------------------|
a|----------------5--5-3-2-0------0-2-3-5------------------5--5-3-2-0-----0-2-3-5-------|
e|--------------------------------------------------------------------------------------|repeat
chorus

  AMAZON PICKS


Wreckingpit - The Psychobilly Homepage December 2017
[Credits] [Link] [Contact] [FAQ]