wreckingpit - The Psychobilly Homepage
The Psychobilly Homepage December 18, 2017, 6:09 pm
> Home > Tabs > Batmobile - Transsylvanian Express
MAIN MENU
[Bands]
[Concerts]
[Flyers]
[Forum]
[Gallery]
[Links]
[Lyrics]
[News]
[Pictures]
[Reviews]
[Shop]
[Sounds]
[Tabs]
[Tattoos]

Search
wreckingpit.com:

PSYCHOBILLY TAB

Batmobile - Transsylvanian Express

Tabbed by: Colen Cleaner
Instrument: guitar

Tuning: Standard

KEY:
~ = Wammy bar

Opening Riff: play twice

|-----0--------0--------0----0---|
|-0-0---0--1-1---1--2-2---2--1---|
|--------------------------------|
|--------------------------------|
|--------------------------------|
|--------------------------------|


opening Riff 2: play once
|-----0--------0--------0--------0------|
|-0-0---0--1-1---1--2-2---2--1-1---1--0-|
|---------------------------------------|
|---------------------------------------|
|---------------------------------------|
|---------------------------------------|


|--0--------0--------0--------0---0---|
|0---0----------------------------0---|
|-------3-3---3--2-2---2--1-1---1-1---|
|---------------------------------2---|
|-------------------------------------|
|-------------------------------------|







Main riff 1: play twice
|-----0--------0--------0--------0----|
|-0-0---0--1-1---1--2-2---2--1-1---1--|
|-------------------------------------|
|-------------------------------------|
|-------------------------------------|
|-------------------------------------|

Main Riff 2: play once after main riff 1
|-----0--------0--------0--------0---|
|-0-0---0----------------------------|
|----------3-3---3--2-2---2--1-1---1-|
|------------------------------------|
|------------------------------------|
|------------------------------------|

Verse: Play twice [palm muted]
|-------------------------------------|
|-------------------------------------|
|-------------------------------------|
|---------------------------------5-5-|
|-2-2-2-2-2-2-2-2-2-2-2-2-----1-2-3-3-|
|-0-0-3-3-0-0-3-3-0-0-3-3-0-3---------|


|-----------------------------|
|-----------------------------|
|-----------------------------|
|5-5-4-4-4-4------------------|
|3-3-2-2-2-2-2-2-2-2-0-1-2-0--|
|------------0-0-3-3----------|

Main riff 1: play four times
Main riff 2

Verse: play twice

Main riff 1: played four times
Main riff 2

Bridge: |<---Play this part 4 x--->|
~~~ ~~ ~~ ~~ ~~ ~~ ~~ ~~
|-0---------------------|-7---8---10---12-11-10-8--|
|-0---------------------|-7---8---10---12-11-10-8--|
|-1---------------------|-8---9---11---13-12-11-9--|
|-2---------------------|--------------------------|
|-2---------------------|--------------------------|
|-0---0---0---0-0-0-00--|--------------------------|

Bridge 2: play four times
|-----0--------0----|
|-0-0---0--1-1---1--|
|-------------------|
|-------------------|
|-------------------|
|-------------------|

Mian riff 2

Verse

Main riff 1: play 8 times
Main riif 2: play once and end on an open E which looks like this..
~~
|-0---|
|-0---|
|-1---|
|-2---|
|-2---|
|-0---|

  AMAZON PICKS


Wreckingpit - The Psychobilly Homepage December 2017
[Credits] [Link] [Contact] [FAQ]