wreckingpit - The Psychobilly Homepage
The Psychobilly Homepage December 13, 2017, 1:12 am
> Home > Tabs > Demented Are Go! - One Sharp Knife
MAIN MENU
[Bands]
[Concerts]
[Flyers]
[Forum]
[Gallery]
[Links]
[Lyrics]
[News]
[Pictures]
[Reviews]
[Shop]
[Sounds]
[Tabs]
[Tattoos]

Search
wreckingpit.com:

PSYCHOBILLY TAB

Demented Are Go! - One Sharp Knife

Tabbed by: Crack Rockabilly
Emailaddress: kat_killer@hotmail.com
Instrument: bass

main riff
G|-----------------------------------|
D|-----------------------------------|
A|-----2-3-----2-3-----2-3-----2-3---|
E|-0-3-----0-3-----0-3-----0-3-------|

flat on my back....
G|-----------------|
D|-----------------|
A|-0-3-0-3-0-3-0-3-|
E|-----------------|

One sharp knife baried in my wife!
G|-----------------------|
D|---------0-0-0---------|
A|-2-2-2-2-------2-0~~~~-|
E|-----------------------|

2:38
G|--------------| "Scream and she whores while unjarring doors!"
D|--------------| <--you do this over and over during that part.
A|-------2xx3xx-|
E|-0xx3xx-------|

  AMAZON PICKS


Wreckingpit - The Psychobilly Homepage December 2017
[Credits] [Link] [Contact] [FAQ]