wreckingpit - The Psychobilly Homepage
The Psychobilly Homepage December 15, 2017, 3:53 pm
> Home > Tabs > Nekromantix - Dead girls don't cry
MAIN MENU
[Bands]
[Concerts]
[Flyers]
[Forum]
[Gallery]
[Links]
[Lyrics]
[News]
[Pictures]
[Reviews]
[Shop]
[Sounds]
[Tabs]
[Tattoos]

Search
wreckingpit.com:

PSYCHOBILLY TAB

Nekromantix - Dead girls don't cry

Tabbed by: Nightmare lilly
Instrument: guitar

e)--------------------------------
b)-------1------------------------
g)-1/2----2--0--2-0----0--2--1--
d)---------------------2----2--2--
a)---------------------------2--2--
e)---------------------------0--0--
(4x)
"baby there was a time"...

e)-----------------------------------0-
b)-----------------------------------0-
g)-----------------------------------1-
d)----------2-----------1--2--0--1----
a)-0--2--3----3--2--0--2--------------
e)--------------------------------------
(6x)
"no more running away"...
(chorus)

Am F C E
e)-0---1---0---0--------------------------
b)-1---1---1---0--------------------------
g)-2---2---0---1--------------------------
d)-2---3---2---2--------------------------
a)-0-------3---2--------------------------
e)--------------0--------------------------
(4x)

e)-------------------------------0
b)-------------------------------0
g)-------------------------0--1--1
d)----------2-----------1--2-------
a)-0--2--3----3--2--0--2----------
e)----------------------------------

  AMAZON PICKS


Wreckingpit - The Psychobilly Homepage December 2017
[Credits] [Link] [Contact] [FAQ]