wreckingpit - The Psychobilly Homepage
The Psychobilly Homepage December 14, 2017, 6:47 pm
> Home > Tabs > Horrorpops - Drama Queen
MAIN MENU
[Bands]
[Concerts]
[Flyers]
[Forum]
[Gallery]
[Links]
[Lyrics]
[News]
[Pictures]
[Reviews]
[Shop]
[Sounds]
[Tabs]
[Tattoos]

Search
wreckingpit.com:

PSYCHOBILLY TAB

Horrorpops - Drama Queen


Instrument: bass

Intro Verse and Chorus
G|----------------------------------------
D|------3-2-----3-2-----3-2---------------
A|--3-5-----3-5-----3-5-------------------
E|----------------------------------------

Bridge
G|----------------------------------------
D|----------------------------------------
A|--3-0-2-3-0-2---------------------------
E|----------------------------------------

Breakdown
G|----------------------------------------
D|----5-7-3---5-7-3-----------------------
A|--3-------3-----------------------------
E|----------------------------------------

  AMAZON PICKS


Wreckingpit - The Psychobilly Homepage December 2017
[Credits] [Link] [Contact] [FAQ]