wreckingpit - The Psychobilly Homepage
The Psychobilly Homepage December 17, 2017, 5:20 pm
> Home > Tabs > Tiger Army - Through the Darkness
MAIN MENU
[Bands]
[Concerts]
[Flyers]
[Forum]
[Gallery]
[Links]
[Lyrics]
[News]
[Pictures]
[Reviews]
[Shop]
[Sounds]
[Tabs]
[Tattoos]

Search
wreckingpit.com:

PSYCHOBILLY TAB

Tiger Army - Through the Darkness

Tabbed by: Josh
Instrument: bass

Intro X2
G|----------------------------------------
D|------2-----2-------4-2-----------------
A|--0-4---0-4-------2-----4---------------
E|--------------0-4-----------------------

Verse
G|----------------------------------------
D|------2-----2----------------2-----2----
A|--0-4---0-4------2-----2-0-4---0-4------
E|--------------0-4--0-4------------------

G|----------------------------------------
D|-----------------------------4-2--------
A|------2-----2-2222222-----2-----4-2-5-0-
E|--0-4---0-4------------0-4--------------

Bridge
G|----------------------------------------
D|----------------------------------------
A|--0-2-0-2-0-2-0-2---------0-2-0-2-0-2-0-
E|-----------------22222222---------------

G|----------------------------------------
D|----------------------------------------
A|--2---2-----2-4-5-2---2-5-0-------------
E|----2---0-4---------4-------------------

play the verse some more and end it with this
G|----------------------------------------
D|----------------------------------------
A|--2-5-2-5-0-----------------------------
E|----------------------------------------

  AMAZON PICKS


Wreckingpit - The Psychobilly Homepage December 2017
[Credits] [Link] [Contact] [FAQ]