wreckingpit - The Psychobilly Homepage [ Advertisement Info ]
The Psychobilly Homepage December 18, 2017, 6:26 pm
> Home > Tabs > Horrorpops - Miss Take
MAIN MENU
[Bands]
[Concerts]
[Flyers]
[Forum]
[Gallery]
[Links]
[Lyrics]
[News]
[Pictures]
[Reviews]
[Shop]
[Sounds]
[Tabs]
[Tattoos]

Search
wreckingpit.com:

PSYCHOBILLY TAB

Horrorpops - Miss Take

Tabbed by: Dan Y
Emailaddress: psycho_punks666@yahoo.com
Instrument: bass

Into:

G-------------------------------------------------0-0-0-0-0-0-0-0-

D---------------------------------1-1-1-1-1-1-1-1-----------------

A-3-3-3-3-3-3-3-3-2-2-2-2-2-2-2-2---------------------------------

E-----------------------------------------------------------------



G-----------------------------------0-3-0---0-3-0-0-0-0-0-0-------

D---------------------------------1-------1-----------------3-1-0-

A-3-3-3-3-3-3-3-3-2-2-2-2-2-2-2-2---------------------------------

E-----------------------------------------------------------------



Verse:

G-------------------------------------------------0-0-0-0-0-------

D---------------------------------1-1-1-1-1-1-1-1-----------3-1-0-

A-3-3-3-3-3-3-3-3-2-2-2-2-2-2-2-2---------------------------------

E-----------------------------------------------------------------



G-------------------------------------------------0-0-0-0-0-0-0-0-

D---------------------------------1-1-1-1-1-1-1-1-----------------

A-3-3-3-3-3-3-3-3-2-2-2-2-2-2-2-2---------------------------------

E-----------------------------------------------------------------



G-------------------------------------------------0-0-0-0-0-------

D---------------------------------1-1-1-1-1-1-1-1-----------3-1-0-

A-3-3-3-3-3-3-3-3-2-2-2-2-2-2-2-2---------------------------------

E-----------------------------------------------------------------



G-------------------------------------------------0-0-0-0-0-0-0-0-

D---------------------------------1-1-1-1-1-1-1-1-----------------

A-3-3-3-3-3-3-3-3-2-2-2-2-2-2-2-2---------------------------------

E-----------------------------------------------------------------



Chorus:

G-4-4-4-4-4-4-4-4-------------------------------------------------

D-----------------4-4-4-4-4-4-4-4-5-5-5-5-5-5-5-4-2-2-2-2-2-2-2-2-

A-----------------------------------------------------------------

E-----------------------------------------------------------------



G-4-4-4-4-4-4-4-4-------------------------------------------------

D-----------------4-4-4-4-4-4-4-4-5-5-5-5-5-5-5-4-2-2-2-2-2-2-2-2-

A-----------------------------------------------------------------

E-----------------------------------------------------------------



G-----------------------------------------------------------------

D-0-0-0-0-0-0-0-0-----------------4-4-4-4-4-4-4-4-4_______________

A-----------------4-4-4-4-4-4-4-4---------------------------------

E-----------------------------------------------------------------



Verse:

G-----------------------------------0-3-0---0-3-0-0-0-0-0-0-------

D---------------------------------1-------1-----------------3-1-0-

A-3-3-3-3-3-3-3-3-2-2-2-2-2-2-2-2---------------------------------

E-----------------------------------------------------------------



G-------------------------------------------------0-0-0-0-0-------

D---------------------------------1-1-1-1-1-1-1-1-----------3-1-0-

A-3-3-3-3-3-3-3-3-2-2-2-2-2-2-2-2---------------------------------

E-----------------------------------------------------------------



G-------------------------------------------------0-0-0-0-0-0-0-0-

D---------------------------------1-1-1-1-1-1-1-1-----------------

A-3-3-3-3-3-3-3-3-2-2-2-2-2-2-2-2---------------------------------

E-----------------------------------------------------------------



G-------------------------------------------------0-0-0-0-0-------

D---------------------------------1-1-1-1-1-1-1-1-----------3-1-0-

A-3-3-3-3-3-3-3-3-2-2-2-2-2-2-2-2---------------------------------

E-----------------------------------------------------------------



G-------------------------------------------------0-0-0-0-0-0-0-0-

D---------------------------------1-1-1-1-1-1-1-1-----------------

A-3-3-3-3-3-3-3-3-2-2-2-2-2-2-2-2---------------------------------

E-----------------------------------------------------------------



Chorus:

G-4-4-4-4-4-4-4-4-------------------------------------------------

D-----------------4-4-4-4-4-4-4-4-5-5-5-5-5-5-5-4-2-2-2-2-2-2-2-2-

A-----------------------------------------------------------------

E-----------------------------------------------------------------



G-4-4-4-4-4-4-4-4-------------------------------------------------

D-----------------4-4-4-4-4-4-4-4-5-5-5-5-5-5-5-4-2-2-2-2-2-2-2-2-

A-----------------------------------------------------------------

E-----------------------------------------------------------------



G-----------------------------------------------------------------

D-0-0-0-0-0-0-0-0-----------------4-4-4-4-4-4-4-4-4_______________

A-----------------4-4-4-4-4-4-4-4---------------------------------

E-----------------------------------------------------------------



Solo:

G-----------------------------------------------------------------

D-----------------------------------------------------------------

A-3-3-3-3---------2-2-2-2-2-2-2-2-3-3-3-3---------2-2-2-2-2-2-2-2-

E---------2-2-2-2-------------------------2-2-2-2-----------------



G-----------------------------------------------------------------

D-----------------------------------------------------------------

A-3-3-3-3---------2-2-2-2-2-2-2-2-3-3-3-3---------2-2-2-2-2-2-2-2-

E---------2-2-2-2-------------------------2-2-2-2-----------------



G-----------------------------------0-3-0---0-3-0-0-0-0-0-0-------

D---------------------------------1-------1-----------------3-1-0-

A-3-3-3-3-3-3-3-3-2-2-2-2-2-2-2-2---------------------------------

E-----------------------------------------------------------------



G-----------------------------------0-3-0---0-3-0-0-0-0-0-0-------

D---------------------------------1-------1-----------------3-1-0-

A-3-3-3-3-3-3-3-3-2-2-2-2-2-2-2-2---------------------------------

E-----------------------------------------------------------------



Chorus:

G-4-4-4-4-4-4-4-4-------------------------------------------------

D-----------------4-4-4-4-4-4-4-4-5-5-5-5-5-5-5-4-2-2-2-2-2-2-2-2-

A-----------------------------------------------------------------

E-----------------------------------------------------------------



G-4-4-4-4-4-4-4-4-------------------------------------------------

D-----------------4-4-4-4-4-4-4-4-5-5-5-5-5-5-5-4-2-2-2-2-2-2-2-2-

A-----------------------------------------------------------------

E-----------------------------------------------------------------



G-----------------------------------------------------------------

D-0-0-0-0-0-0-0-0-----------------4-4-4-4-4-4-4-4-4-4-4-4-4-4-4-4-

A-----------------4-4-4-4-4-4-4-4---------------------------------

E-----------------------------------------------------------------



G-----------------------------------------------------------------

D-0-0-0-0-0-0-0-0-----------------4-4-4-4-4-4-4-4-4-4-4-4-4-4-4-4-

A-----------------4-4-4-4-4-4-4-4---------------------------------

E-----------------------------------------------------------------



G-----------------------------------------------------------------

D-0-0-0-0-0-0-0-0-------------------------------------------------

A-----------------4-4-4-4-4-4-4-4---------------------------------

E---------------------------------2-2-2-2-2-2-2-2-2-2-2-2-2-2-2-2-



G-----------------------------------------------------------------

D-0-0-0-0-0-0-0-0-----------------2_______________________________

A-----------------4-4-4-4-4-4-4-4---------------------------------

E-----------------------------------------------------------------

  AMAZON PICKS


Wreckingpit - The Psychobilly Homepage December 2017
[Credits] [Link] [Contact] [FAQ]