wreckingpit - The Psychobilly Homepage
The Psychobilly Homepage December 13, 2017, 9:03 am
> Home > Tabs > Horrorpops - Where They Wander
MAIN MENU
[Bands]
[Concerts]
[Flyers]
[Forum]
[Gallery]
[Links]
[Lyrics]
[News]
[Pictures]
[Reviews]
[Shop]
[Sounds]
[Tabs]
[Tattoos]

Search
wreckingpit.com:

PSYCHOBILLY TAB

Horrorpops - Where They Wander

Tabbed by: Dan Y
Emailaddress: psycho_punks666@yahoo.com
Instrument: bass

G|-------------------------------------------------------------------------------||

D|---------------------------------------0-0-0-0-0-0-0-0---------------------||

A|-------------------3-3-3-3-3-3-3-3---------------------1-1-1-1-1-1-1-1-||

E|1-1-1-1-1-1-1-1-------------------------------------------------------------||



G|----------------------------------------------------------------------------------||

D|-----------------------------------------0-0-0-0-0-0-0-0----------------------||

A|--------------------3-3-3-3-3-3-3-3----------------------1-1-1-1-1-1-1-1--||

E|1-1-1-1-1-1-1-1----------------------------------------------------------------||



G|-------------------------------------------------------------------------------||

D|-0-0-0-0-0-0-0-0-3-3-3-3-----------0-0-0-0-0-0-0-0-3-3-3-3---------||

A|-------------------------------1-1-1-1------------------------------1-1-1-1||

E|--------------------------------------------------------------------------------||



(Stand back keep away.....)

G|--------------------------------------------------------------------------------||

D|-0-0-0-0-0-0-0-0-3-3-3-3-----------0-0-0-0-0-0-0-0-3-3-3-3----------||

A|-------------------------------1-1-1-1-------------------------------1-1-1-1||

E|---------------------------------------------------------------------------------||



G|--------------------------------------------------------------------------------||

D|-0-0-0-0-0-0-0-0-3-3-3-3-----------0-0-0-0-0-0-0-0-3-3-3-3----------||

A|-------------------------------1-1-1-1-------------------------------1-1-1-1||

E|---------------------------------------------------------------------------------||



G|--------------------------------------------------------------------------------||

D|-----------------------------------------0-0-0-0-0-0-0-0-0-0-0-0-0-0-0-0||

A|-1-1-1-1-1-1-1-1-3-3-3-3-3-3-3-3----------------------------------------||

E|-------------------------------------------------------------------------------- ||



G|--------------------------------------------------------------------------------||

D|--------------------------------------------------------------------------------||

A|-1-1-1-1-1-1-1-1-3-3-3-3-3-3-3-3-0-0-0-0-0-0-0-0-0-0-0-0-0-0-0-0||

E|---------------------------------------------------------------------------------||

(I don?t wana give in?..)

G|--------------------------------------------------------------------------------||

D|----------------------------------------0-0-0-0-0-0-0-0---------------------||

A|--------------------3-3-3-3-3-3-3-3---------------------1-1-1-1-1-1-1-1-||

E|1-1-1-1-1-1-1-1--------------------------------------------------------------||



G|--------------------------------------------------------------------------------||

D|----------------------------------------0-0-0-0-0-0-0-0---------------------||

A|--------------------3-3-3-3-3-3-3-3---------------------1-1-1-1-1-1-1-1-||

E|1-1-1-1-1-1-1-1--------------------------------------------------------------||

G|--------------------------------------------------------------------------------||

D|-0-0-0-0-0-0-0-0-3-3-3-3-----------0-0-0-0-0-0-0-0-3-3-3-3----------||

A|-------------------------------1-1-1-1-------------------------------1-1-1-1||

E|---------------------------------------------------------------------------------||



G|--------------------------------------------------------------------------------||

D|-0-0-0-0-0-0-0-0-3-3-3-3-----------0-0-0-0-0-0-0-0-3-3-3-3----------||

A|-------------------------------1-1-1-1-------------------------------1-1-1-1||

E|---------------------------------------------------------------------------------||



G|--------------------------------------------------------------------------------||

D|-0-0-0-0-0-0-0-0-3-3-3-3-----------0-0-0-0-0-0-0-0-3-3-3-3----------||

A|-------------------------------1-1-1-1-------------------------------1-1-1-1||

E|---------------------------------------------------------------------------------||

(Calling your name?.)

G|--------------------------------------------------------------------------------||

D|-----------------------------------------0-0-0-0-0-0-0-0-0-0-0-0-0-0-0-0||

A|-1-1-1-1-1-1-1-1-3-3-3-3-3-3-3-3----------------------------------------||

E|-------------------------------------------------------------------------------- ||



G|--------------------------------------------------------------------------------||

D|--------------------------------------------------------------------------------||

A|-1-1-1-1-1-1-1-1-3-3-3-3-3-3-3-3-0-0-0-0-0-0-0-0-0-0-0-0-0-0-0-0||

E|---------------------------------------------------------------------------------||



(We don?t wana give in?..)

G|--------------------------------------------------------------------------------||

D|----------------------------------------0-0-0-0-0-0-0-0---------------------||

A|--------------------3-3-3-3-3-3-3-3---------------------1-1-1-1-1-1-1-1-||

E|1-1-1-1-1-1-1-1--------------------------------------------------------------||



G|--------------------------------------------------------------------------------||

D|----------------------------------------0-0-0-0-0-0-0-0---------------------||

A|--------------------3-3-3-3-3-3-3-3---------------------1-1-1-1-1-1-1-1-||

E|1-1-1-1-1-1-1-1--------------------------------------------------------------||



G|--------------------------------------------------------------------------------||

D|-0-0-0-0-0-0-0-0-3-3-3-3-----------0-0-0-0-0-0-0-0-3-3-3-3----------||

A|-------------------------------1-1-1-1-------------------------------1-1-1-1||

E|---------------------------------------------------------------------------------||



G|--------------------------------------------------------------------------------||

D|-0-0-0-0-0-0-0-0-3-3-3-3-----------0-0-0-0-0-0-0-0-3-3-3-3----------||

A|-------------------------------1-1-1-1-------------------------------1-1-1-1||

E|---------------------------------------------------------------------------------||



(We don?t wana give in?..)

G|--------------------------------------------------------------------------------||

D|----------------------------------------0-0-0-0-0-0-0-0---------------------||

A|--------------------3-3-3-3-3-3-3-3---------------------1-1-1-1-1-1-1-1-||

E|1-1-1-1-1-1-1-1--------------------------------------------------------------||



G|--------------------------------------------------------------------------------||

D|----------------------------------------0-0-0-0-0-0-0-0---------------------||

A|--------------------3-3-3-3-3-3-3-3---------------------1-1-1-1-1-1-1-1-||

E|1-1-1-1-1-1-1-1--------------------------------------------------------------||



G|--------------------------------------------------------------------------------||

D|----------------------------------------0-0-0-0-0-0-0-0---------------------||

A|--------------------3-3-3-3-3-3-3-3---------------------1-1-1-1-1-1-1-1-||

E|1-1-1-1-1-1-1-1--------------------------------------------------------------||



G|--------------------------------------------------------------------------------||

D|----------------------------------------0-0-0-0-0-0-0-0---------------------||

A|--------------------3-3-3-3-3-3-3-3---------------------1-1-1-1-1-1-1-0-||

E|1-1-1-1-1-1-1-1--------------------------------------------------------------||

  AMAZON PICKS


Wreckingpit - The Psychobilly Homepage December 2017
[Credits] [Link] [Contact] [FAQ]