wreckingpit - The Psychobilly Homepage [ Advertisement Info ]
The Psychobilly Homepage December 17, 2017, 11:14 pm
> Home > Tabs > Demented Are Go! - Don't Go InThe Woods
MAIN MENU
[Bands]
[Concerts]
[Flyers]
[Forum]
[Gallery]
[Links]
[Lyrics]
[News]
[Pictures]
[Reviews]
[Shop]
[Sounds]
[Tabs]
[Tattoos]

Search
wreckingpit.com:

PSYCHOBILLY TAB

Demented Are Go! - Don't Go InThe Woods

Tabbed by: Spencer wessels
Emailaddress: cyspherus@yahoo.com
Instrument: bass

G|--------------------------------------------------|
D|--1h2-----1h2-------1h2-----1h2------1--2---------|
A|------2h3-----0h1-------2h3-----0h1---------------|
E|--------------------------------------------------|

Verse
G|------------------------------------------------------|
D|--2xx2xx2xx2xx--------------2xx2xx--------2xx2xx------|
A|---------------3xx3xx3xx3xx--------3xx3xx--------3-2--|
E|------------------------------------------------------|

Solo
G|------2-4-5-4-2-----------------------2---------------2-------|
D|--0-4-----------4-----2-4-5-4-2---0-4---4-----2---0-4---4-----|
A|------------------0-4-----------4---------0-4---4---------3-2-|
E|--------------------------------------------------------------|

h = hammer on
Now just figure out the order

  AMAZON PICKS


Wreckingpit - The Psychobilly Homepage December 2017
[Credits] [Link] [Contact] [FAQ]