wreckingpit - The Psychobilly Homepage
The Psychobilly Homepage October 21, 2014, 1:20 pm
> Home > Tabs > Demented Are Go! - Who Put Grandma Under The Stairs
MAIN MENU
[Bands]
[Concerts]
[Flyers]
[Forum]
[Gallery]
[Links]
[Lyrics]
[News]
[Pictures]
[Reviews]
[Shop]
[Sounds]
[Tabs]
[Tattoos]

Search
wreckingpit.com:

PSYCHOBILLY TAB

Demented Are Go! - Who Put Grandma Under The Stairs

Tabbed by: Crack Rockabilly
Emailaddress: kat_killer@hotmail.com
Instrument: bass

main bass riff
G|------------------|
D|------------------|
A|-0-3---2-----0----|
E|-----3---0-3---3--|

"TRY TO SAVE HER TRY TO WARN HER"
G|-----2---------------------------|
D|-0-3---3-2-0---------2-----------|
A|-------------3-2-0-3---3---------|
E|-------------------------0-2-3-4-|

*the little instrumental part before "out the door I did creep to the cellar
way down deep"
this also goes for the end.
G|------------------------------------------------------------------|
D|---3-2-0-2-0---------0-1-2-1---------0-1-2-1---------0-1-2-1------|
A|-0-----------3-2-0-3---------3-2-0-3---------3-2-0-3---------3-2--|
E|------------------------------------------------------------------|

  AMAZON PICKS


Wreckingpit - The Psychobilly Homepage October 2014
[Credits] [Link] [Contact] [FAQ]