wreckingpit - The Psychobilly Homepage
The Psychobilly Homepage December 15, 2017, 3:53 pm
> Home > Tabs > Demented Are Go! - The Chase
MAIN MENU
[Bands]
[Concerts]
[Flyers]
[Forum]
[Gallery]
[Links]
[Lyrics]
[News]
[Pictures]
[Reviews]
[Shop]
[Sounds]
[Tabs]
[Tattoos]

Search
wreckingpit.com:

PSYCHOBILLY TAB

Demented Are Go! - The Chase

Tabbed by: Crack Rockabilly
Emailaddress: kat_killer@hotmail.com
Instrument: bass

G|-------------------------------------------------------|
D|-----2---0-----------2-3-2-0---------------------------|
A|-0-3---3---3-2---0-3---------3-2-----------------------|
E|---------------3---------------------------------------|

G|-------------------------------------------------------|
D|-----2---0-----------2---------------------------------|
A|-0-3---3---3-2---0-3---3-0-2-3-4-----------------------|
E|---------------3---------------------------------------|


G|-----2---0-----------2-3-2-0---------------------------|
D|-0-3---3---3-2---0-3---------3-2-----------------------|
A|---------------3---------------------------------------|
E|-------------------------------------------------------|

G|-------------------------------------------------------|
D|-----2---0-----------2---------------------------------|
A|-0-3---3---3-2---0-3---3-0-----------------------------|
E|---------------3---------------------------------------|

G|---------------------------------------------------------------|
D|---------------------------------------------2-0------0--------|
A|-2-2-2--3-3-3--2-2-2--3-3-3--2-3-2-3-2-3-2-3-----3-2----3-2----|
E|------------------------------------------------------------3--|

  AMAZON PICKS


Wreckingpit - The Psychobilly Homepage December 2017
[Credits] [Link] [Contact] [FAQ]