wreckingpit - The Psychobilly Homepage [ Advertisement Info ]
The Psychobilly Homepage December 12, 2017, 8:13 am
> Home > Tabs > Demented Are Go! - Daddies Making Monsters
MAIN MENU
[Bands]
[Concerts]
[Flyers]
[Forum]
[Gallery]
[Links]
[Lyrics]
[News]
[Pictures]
[Reviews]
[Shop]
[Sounds]
[Tabs]
[Tattoos]

Search
wreckingpit.com:

PSYCHOBILLY TAB

Demented Are Go! - Daddies Making Monsters

Tabbed by: Crack Rockabilly
Emailaddress: madman_roll@yahoo.com
Instrument: bass

G|----------------|
D|----------------|
A|--------0-0-----|
E|0-0-3-3-----3-0-|


"daddies making monsters"
G|-------------------------------------------------------------------|
D|-2-2-2-2-0-0-0-0---------------------------------------------------|
A|-----------------3-3-3-3-2-2-2-2-0-0-0-0-----------------2-0-------|
E|-----------------------------------------3-3-3-3-2-2-2-2-----3-2---|

"fuckin with the dead!"
G|-------------------------------|
D|-------------------------------|
A|-------------------------2-1-0-|
E|-0-0-0-0-0-0-0-0-0-0-0-0-------|

  AMAZON PICKS


Wreckingpit - The Psychobilly Homepage December 2017
[Credits] [Link] [Contact] [FAQ]