wreckingpit - The Psychobilly Homepage [ Advertisement Info ]
The Psychobilly Homepage December 16, 2017, 6:58 am
> Home > Tabs > Torment - Rockjet
MAIN MENU
[Bands]
[Concerts]
[Flyers]
[Forum]
[Gallery]
[Links]
[Lyrics]
[News]
[Pictures]
[Reviews]
[Shop]
[Sounds]
[Tabs]
[Tattoos]

Search
wreckingpit.com:

PSYCHOBILLY TAB

Torment - Rockjet

Tabbed by: syd cyanide
Instrument: guitar

intro/ main riff
e|--1-1----2----------
b|--1-1----2----------
g|--1-1----2----------
d|--1-1----2----------
a|---------------------
E|---------------------


chorus-rock shuffle on A
e|---------------------
b|---------------------
g|---------------------
d|-2-2-2-2-2-2-2-2--
a|-0-3-0-3-0-3-0-3--
E|---------------------

  AMAZON PICKS


Wreckingpit - The Psychobilly Homepage December 2017
[Credits] [Link] [Contact] [FAQ]