wreckingpit - The Psychobilly Homepage [ Advertisement Info ]
The Psychobilly Homepage December 11, 2017, 7:34 am
> Home > Tabs > Torment - Uncle Sam
MAIN MENU
[Bands]
[Concerts]
[Flyers]
[Forum]
[Gallery]
[Links]
[Lyrics]
[News]
[Pictures]
[Reviews]
[Shop]
[Sounds]
[Tabs]
[Tattoos]

Search
wreckingpit.com:

PSYCHOBILLY TAB

Torment - Uncle Sam

Tabbed by: syd cyanide
Instrument: guitar

intro main riff
e|--------------------------------------------
b|--------------------------------------------
g|--------------------------------------------
d|-2--2--2--2--2--2--2--2------------------
a|-0--0--0--3~3~0--0--0--2--2------------
E|---------------------------0--3------------


verse
e|------------------------------------------
b|------------------------------------------
g|------------------------------------------
d|-2-2-2-2-2-2-2-2-2-2------------------
a|-0-3-0-3-0-3-0-3-0-3------------------
E|------------------------------------------


chorus--the "hey you" part
e|-------2---2-----------5---5-----------7---7------
b|-----2-----2---------5-----5---------7-----7------
g|---2-------2-------5-------5-------7-------7------
d|-2---------2-----5---------5-----7---------7------
a|----------------------------------------------------
E|----------------------------------------------------

  AMAZON PICKS


Wreckingpit - The Psychobilly Homepage December 2017
[Credits] [Link] [Contact] [FAQ]