wreckingpit - The Psychobilly Homepage
The Psychobilly Homepage December 16, 2017, 5:17 am
> Home > Tabs > Krewmen, The - Helltrain
MAIN MENU
[Bands]
[Concerts]
[Flyers]
[Forum]
[Gallery]
[Links]
[Lyrics]
[News]
[Pictures]
[Reviews]
[Shop]
[Sounds]
[Tabs]
[Tattoos]

Search
wreckingpit.com:

PSYCHOBILLY TAB

Krewmen, The - Helltrain

Tabbed by: Kameron F.
Emailaddress: dimebag985@yahoo.com
Instrument: guitar

riff 1a. intro...repeat several times
e------------------------------
b-------------------------------
g------------------2-----0---------
d------------------2-----0-----------
a--------2------0--------------------
e--0--3-----3----------3----2----

riff 1b. next part-2x
e-------------------------
b-------------------------
g----------------5---4----
d---------2------3---2----
a--0---3-----3------------
e-------------------------
riff 1c.
e-------------------------------------------0-----
b-------------------------------------------0-----
g-------------------------------------------0----
d--4------------4-4----2--------------------2-----
a--2------------2-2----0-----0--------------2----
e-------------------------------3--2--------0----
let ring

riff 2a. fast part...play a few times.
e-------------------------------
b--------------------------------
g------------------------------
d---------2-2----------------
a-----2---0-0--------------------
e-0-3---3----3322---------
riff 2b.
e----------------------
b------------------------
g---------5-4---------
d-----2---3-2--------
a-0-3---3-----------
e-----------------------
riff 2c.
e------------------------------------
b----------------------------------
g-------------------------------------
d-4-4-4-4-4-4-4-4-2-2-2-2-2-2-2-2----
a-2-2-2-2-2-2-2-2-0-0-0-0-0-0-0-0---
e---------------------------------3-2

the bridge riff is just E A E B A
then goes right back into riff2a.

song structure
riff 1a.8x
riff 1b.2x
riff 1a.2x
riff 1c.1x
riff 2a.12x....i think
riff 2b.2x
riff 2a.2x
riff 2c.1x
riff 2a.4x
bridge goes in here somewhere

im not listening to the song now so i dont know how
much longer the song is but the fast part goes on for
a while.

  AMAZON PICKS


Wreckingpit - The Psychobilly Homepage December 2017
[Credits] [Link] [Contact] [FAQ]