wreckingpit - The Psychobilly Homepage
The Psychobilly Homepage December 18, 2017, 1:12 am
> Home > Tabs > Tiger Army - Prelude: Nightfall
MAIN MENU
[Bands]
[Concerts]
[Flyers]
[Forum]
[Gallery]
[Links]
[Lyrics]
[News]
[Pictures]
[Reviews]
[Shop]
[Sounds]
[Tabs]
[Tattoos]

Search
wreckingpit.com:

PSYCHOBILLY TAB

Tiger Army - Prelude: Nightfall

Tabbed by: Crack Rockabilly
Emailaddress: kat_killer@hotmail.com
Instrument: bass

G|-----6---------------6-------------5-4-3-2-1-0---------|
D|-4-5---5-4-------4-5---5-4-----------------------------|
A|-----------5-4-5-----------5-4-5-3-------------3-------|
E|-------------------------------------------------------|

G|------------------------0-------0-------0--------------|
D|-4-4-4-4-4-4-4-4----2-3-----2-3-----2-3-----2-3-2------|
A|--4-4-4-4-4-4-4-4-3-------3-------3-------3------------|
E|-------------------------------------------------------|

G|-----------------------0-------0-----------------------|
D|---1-2-1-4-3-2-1---2-3-----2-3-----1-2-1-4-3-2-1-------|
A|-2---------------3-------3-------2---------------3~----|
E|-------------------------------------------------------|

G|-------------------------------------------------------|
D|-4~~~~~4~~~~~4~~~~~4~~~~~------------------------------|
A|-------------------------------------------------------|
E|-------------------------------------------------------|

  AMAZON PICKS


Wreckingpit - The Psychobilly Homepage December 2017
[Credits] [Link] [Contact] [FAQ]