wreckingpit - The Psychobilly Homepage [ Advertisement Info ]
The Psychobilly Homepage December 14, 2017, 6:08 am
> Home > Tabs > Nekromantix - Subcultral Girl
MAIN MENU
[Bands]
[Concerts]
[Flyers]
[Forum]
[Gallery]
[Links]
[Lyrics]
[News]
[Pictures]
[Reviews]
[Shop]
[Sounds]
[Tabs]
[Tattoos]

Search
wreckingpit.com:

PSYCHOBILLY TAB

Nekromantix - Subcultral Girl

Tabbed by: Bass Punker Collin
Emailaddress: broken_record2001@hotmail.com
Instrument: bass

Intro
G|---------------|
D|----------2~---|
A|-5~----1~------|
E|----1~------3~-|

Chorus
G|----------------------------------------------------------------|
D|-----------3-5-7-3-----2-3-3-2-0--------------------------------|
A|-5---0-3-5---------3-5-----------1-1--0-1-1---0-----------------|
E|---3---------------------------------1------1---0-0-0-0-3-3-3-3-|

Verse
G|---------------2-------------------------2-2-----2-4-5-4-2-0-----|
D|-------------3---3-3---2-3-3-2-0-----3-5-----3-5-------------3-2-|
A|-5-5-0-3-5-5---------3-----------1-1-----------------------------|
E|-----------------------------------------------------------------|

-chorus

Break
G|-------2-2-5-6-7------------2-3-5-3-3-2-2-0-0---------------------|
D|---3-5------------3-3-2-0-3-------------------3-3-2-2-2-2-5-5-5-5-|
A|-5----------------------------------------------------------------|
E|------------------------------------------------------------------|

Verse
G|-----------------------------------------------------------|
D|-----------------3-3-3-3-3-3-3-3---------------------------|
A|-5-5-5-5-5-5-5-5-----------------1-1---0-1-1--0------------|
E|-------------------------------------1-------1--5-5-5-5-5\-|

Chorus
G|-----------------------------------------------------------------|
D|-----------------3-3---2-3-3-2-0---------------------------------|
A|-5-5-5-0-5-5-5-0-----3-----------1-1---0-1-1-0-------------------|
E|-------------------------------------1---------3-0-0-0-0-3-3-3-3-|

Bridge
G|-99-88-77-66-55-44-33-22-11-00---------------------|
D|-------------------------------44-33-22-11-00---2>-|
A|----------------------------------------------4----|
E|---------------------------------------------------|
Then The Guitar Comes In
G|-----------------|-----------------|----------------2-1-0-----------|-----------|
D|-2-1-0-----------|-----------------|----------5-6-7-------4-3-2-1-0-|-----------|
A|-------4-3-2-1-0-|-----------------|--4-5-7-7-----------------------|--3-4-3----|
E|-----------------|-3-3-3-3-3-3-3-3-|-5------------------------------|-5------5\-|

Fade out with the chorus

  AMAZON PICKS


Wreckingpit - The Psychobilly Homepage December 2017
[Credits] [Link] [Contact] [FAQ]