wreckingpit - The Psychobilly Homepage
The Psychobilly Homepage December 13, 2017, 1:11 am
> Home > Tabs > Social Distortion - Story Of My Life
MAIN MENU
[Bands]
[Concerts]
[Flyers]
[Forum]
[Gallery]
[Links]
[Lyrics]
[News]
[Pictures]
[Reviews]
[Shop]
[Sounds]
[Tabs]
[Tattoos]

Search
wreckingpit.com:

PSYCHOBILLY TAB

Social Distortion - Story Of My Life

Tabbed by: Bass Punker Collin
Emailaddress: broken_record2001@hotmail.com
Instrument: bass

Inro/Chorus

G:-----------------------------------------------|
D:-----------------------------------------------|
A:--------------4-4-4-4-6-6-6-6-6-6-6-6-|
E:4-4-4-4-------------------------------------|

Verse

G:------------------------------------------
D:------------------------------------------
A:-------3-3-3-3-5-5-5-5-5-3-2-0-
E:3-3-3-3---------------------------------

G:----------------------------------------------------------------
D:--------------------------------------3-4-5-6-6-6-6--------------------------
A:--------------3-3-3-3-5-5-5-5-5--------------------3-3-3-3-5-5-5-5-5-3-2-0--
E:3-3-3-3---------------------------------------------------------

G:--------------------------------------------|
D:--------------------------------------------|
A:---------------4-4-4-4-6-6-6-6-6-6-6-6--|
E:4-4-4-4---------------------------------------|

Then during 2 guitar solo just before 3rd verse
8 times
G:---------------------------------
D:---------------------------------
A:---------------4-4-4-4-6-6-6-6-6-6-6-6---
E:4-4-4-4--------------------------

Then when the solo starts to change it goes like this
2 times
G:------------------------------------------------
D:----------------------------------------------
A:---------------3-3-3-3-5-5-5-5-5-3-2-0-
E:3-3-3-3-------------------------------------

After when the solo changes again it goes like this
2 times
G:--------------------------------------------------|
D:-----------------------------------------------|
A:----------3-3-3-3-5-5---------5-3-2-0--|
E:3-3-3-3-----------------5-5---------------|

  AMAZON PICKS


Wreckingpit - The Psychobilly Homepage December 2017
[Credits] [Link] [Contact] [FAQ]