wreckingpit - The Psychobilly Homepage
The Psychobilly Homepage December 18, 2017, 12:59 am
> Home > Tabs > Social Distortion - Cold Feelings
MAIN MENU
[Bands]
[Concerts]
[Flyers]
[Forum]
[Gallery]
[Links]
[Lyrics]
[News]
[Pictures]
[Reviews]
[Shop]
[Sounds]
[Tabs]
[Tattoos]

Search
wreckingpit.com:

PSYCHOBILLY TAB

Social Distortion - Cold Feelings

Tabbed by: Bass Punker Collin
Emailaddress: broken_record2001@hotmail.com
Instrument: bass

Intro:
G:---------------------------------------------------|
D:---------------------------------------------------|
A:------------------------------------4-------------|
E:-6-6-6-6-6-6-6-6-6-6-6-6-6--6-6-6-6-6-|

Verse:
G:---------------------------------------------------------------------|
D:---------------------------------------------------------------------|
A:-----------------------------------------------4-4-4-4-4-4-4-4-|
E:-6-6-6-6-6-6-6-6-6-2-2-2-2-2-2-2-2-----------------------|

For the chorus you'll hit E:-6- a bunch of time, then when he starts sings
"Cold Feelings In The..."
go right away to E:-2- and continue from that.

  AMAZON PICKS


Wreckingpit - The Psychobilly Homepage December 2017
[Credits] [Link] [Contact] [FAQ]