wreckingpit - The Psychobilly Homepage
The Psychobilly Homepage December 18, 2017, 12:54 am
> Home > Tabs > Sting-Rays, The - Escalator
MAIN MENU
[Bands]
[Concerts]
[Flyers]
[Forum]
[Gallery]
[Links]
[Lyrics]
[News]
[Pictures]
[Reviews]
[Shop]
[Sounds]
[Tabs]
[Tattoos]

Search
wreckingpit.com:

PSYCHOBILLY TAB

Sting-Rays, The - Escalator

Tabbed by: ulysses
Emailaddress: communicatewithulysses@yahoo.com
Instrument: guitar

Rather than write this out sequentially as it appears in the song, I have just broken this up into pieces.

intro:
|-----------------------------------------------|
|-----------------------------------------------|
|---5---5---5----5--repeated throughout verses -|
|-0---3---0---3---------------------------------|
|-----------------------------------------------|
|-----------------------------------------------|

verse chords
|--2--1-1-1-(0)--2--1-1-1-(0)--|
|--3--1-1-1-(0)--3--1-2-2-(0)--|
|--2--2-2-2-(0)--2--2-2-2-(0)--|
|--0--3-3-3------0--3-3-3------|
|-------3-------------3--------|
|------------------------------|

bridge
|----------------------------------------------|
|------------------------------1-1-1-1-1-1-----|
|-2----1----2----1---2----1----0-0-0-0-0-0-----|
|-2----2----2----2---2----2----2-2-2-2-2-2-----|
|-0----2----0----2---0----2----3-3-3-3-3-3-----|
|---3--0------3--0-----3--0--------------------|

chorus
|-6-6-6-6-----------------------|
|-5-5-5-5- repeat 8 times ------|
|-5-5-5-5-- as a funk riff -----|
|-------------------------------|
|-------------------------------|
|-------------------------------|

middle section (listen for strumming pattern!)
|-1-2-3-4-5---6--5--4--7--6--3--1--1--0--1--0--1----0-----|
|-1-2-3-4-5---6--5--4--7--6--4--1--0--0--0--0--0----1-----|
|-2-3-4-5-6---7--6--4--8--7--5--2--0--1--0--1--0----0-----|
|-------------8--7--6--9--8--5--3--0--2--0--2--0----2-----|
|-------------8--7--6--9--8--3--3--2--2--2--2--2----3-----|
|-------------6--5--4--7--6-----1--3--0--3--0--3----3-----|

|--2--1-1-1-(0)--2--1-1-1-(0)--2--1-1-1-(0)---2-2-2-|
|--3--1-1-1-(0)--3--1-2-2-(0)--3--1-1-1-(0)---3-3-3-|
|--2--2-2-2-(0)--2--2-2-2-(0)--3--2-2-2-(0)---2-2-2-|
|--0--3-3-3------0--3-3-3---------3-3-3-------------|
|-------3-------------3-------------3---------------|
|---------------------------------------------------|

end chorus and verse
|-6-6-6-6---------------------|-6-------------|
|-5-5-5-5- repeat 12 times ---|-5- 16 times --|
|-5-5-5-5---- as a funk riff -|-5-------------|
|-----------------------------|---------------|
|-----------------------------|---------------|
|-----------------------------|---------------|

|--2--1-1-1-(0)--2--1-1-1-(0)-2--1-1-1-(0)------------|
|--3--1-1-1-(0)--3--1-2-2-(0)-3--1-2-2-(0)------------|
|--2--2-2-2-(0)--2--2-2-2-(0)-2--2-2-2-(0)----2----1--|
|--0--3-3-3------0--3-3-3-----0--3-3-3--------2----2--|
|-------3-------------3------------3----------0----2--|
|-----------------------------------------------3--0--|

  AMAZON PICKS


Wreckingpit - The Psychobilly Homepage December 2017
[Credits] [Link] [Contact] [FAQ]