wreckingpit - The Psychobilly Homepage
The Psychobilly Homepage December 14, 2017, 6:11 am
> Home > Tabs > Cramps, The - Human Fly
MAIN MENU
[Bands]
[Concerts]
[Flyers]
[Forum]
[Gallery]
[Links]
[Lyrics]
[News]
[Pictures]
[Reviews]
[Shop]
[Sounds]
[Tabs]
[Tattoos]

Search
wreckingpit.com:

PSYCHOBILLY TAB

Cramps, The - Human Fly


Instrument: guitar

Intro
D|7-7-6-6-5-5-4-4-3-3-2-2-1-1-0-0-|

A|4-4-3-3-2-2-1-1-0-0-0-0-0-0-0-0-|

A|0-0-3-3-0-0-3-3-0-0-3-3-0-0-3-3-|

A|0-0-3-3-0-0-3-3-0-0-3-3-0-0-3-3-|

D|0-0-3-3-0-0-3-3-0-0-3-3-0-0-3-3-|

A|0-0-3-3-0-0-3-3-0-0-3-3-0-0-3-3-|

E|0-0-3-3-0-0-3-3-0-0-3-3-0-0-3-3-|

A|0-0-3-3-0-0-3-3-0-0-3-3-0-0-3-3-|


Vers 1

A|0-0-3-3-0-0-3-3-| x6

|----------------|
E|0-0-0-0-0-0-2-3-|

A|0-0-3-3-0-0-3-3-| x6

|----------------|
E|0-0-0-0-0-0-2-3-|


Chorus

B|9-7-------------------|9-7-------------------|
G|----9-7---------------|----9-7---------------|
D|--------0-------------|----------------------|
A|----------------------|--------0-------------| x2


B|9-7-------|
G|----9-7---|
D|----------|
A|----------|

Bridge

A|0-0-3-3-0-0-3-3-0-0-3-3-0-0-3-3-|

D|0-0-3-3-0-0-3-3-0-0-3-3-0-0-3-3-|

Vers 2

A|0-0-3-3-0-0-3-3-| x6

|----------------|
E|0-0-0-0-0-0-2-3-|

A|0-0-3-3-0-0-3-3-| x6

|----------------|
E|0-0-0-0-0-0-2-3-|

Outro

A|3-3-4-4-5-5-6-6-7-7-8-8-7-7-6-6-5-5-4-4-3-3-0-|

  AMAZON PICKS


Wreckingpit - The Psychobilly Homepage December 2017
[Credits] [Link] [Contact] [FAQ]