wreckingpit - The Psychobilly Homepage
The Psychobilly Homepage December 18, 2017, 6:14 pm
> Home > Tabs > Tiger Army - Cupid's Victim
MAIN MENU
[Bands]
[Concerts]
[Flyers]
[Forum]
[Gallery]
[Links]
[Lyrics]
[News]
[Pictures]
[Reviews]
[Shop]
[Sounds]
[Tabs]
[Tattoos]

Search
wreckingpit.com:

PSYCHOBILLY TAB

Tiger Army - Cupid's Victim

Tabbed by: ulysses
Emailaddress: communicatewithulysses@yahoo.com
Instrument: guitar

arranged for soprano ukulele!
Tuning = GCEA

Listen for the general rhythm for the chord changes and hammer-ons.

verse
a|---4-----1---------|----s/4--s/4--s/4--s/4------3-4-6-3----|
e|---4-----1---------|----s/6--s/6--s/6--s/6------4-4-4-4----|
c|---5-----1--- x 4 -|----s/6--s/6--s/6--s/6------3-3-3-3----|
g|---6-----3---------|----------------------------5----------|

"and I know..."
a|----s/4--s/4--s/4--s/4------3-4-6-3----|
e|----s/6--s/6--s/6--s/6------4-4-4-4----|
c|----s/6--s/6--s/6--s/6------3-3-3-3----|
g|----------------------------5----------|

chorus
a|----4--6--8----4---6--------------------------------------------------|
e|----4--4--4----6---8--------------------------------------------------|
c|----5--5--5----6---8--------------------------------------------------|
g|----6--6--6-----------------------------------------------------------|

bridge
a|----4--4------------------------4--6-----4------1---------------------|
e|----4--6-- listen for rhythms --6--6-----4------2---------------------|
c|----5--5--- and hammer on ------6--6-----5------1---------------------|
g|----6--6---------------------------------6------3---------------------|

  AMAZON PICKS


Wreckingpit - The Psychobilly Homepage December 2017
[Credits] [Link] [Contact] [FAQ]