wreckingpit - The Psychobilly Homepage
The Psychobilly Homepage December 11, 2017, 2:52 pm
> Home > Tabs > Cramps, The - Most Exalted Potentate of Love
MAIN MENU
[Bands]
[Concerts]
[Flyers]
[Forum]
[Gallery]
[Links]
[Lyrics]
[News]
[Pictures]
[Reviews]
[Shop]
[Sounds]
[Tabs]
[Tattoos]

Search
wreckingpit.com:

PSYCHOBILLY TAB

Cramps, The - Most Exalted Potentate of Love

Tabbed by: ulysses
Emailaddress: communicatewithulysses@yahoo.com
Instrument: guitar

The guitars on this album are not quite a full semitone down from concert pitch, so beware if you are trying to play along to the record!

Also, please note, what appear to be bar lines aren't there to indicate any rhythmic bar length but rather to aid legibilty regarding repeated passages.

intro
|------------------------------|----------------------------------------------|
|------2-3-5--3-2-----2--------|----------------------------------------------|
|-2-3-------------3-3---3-2----|----------------------------------------------|
|------------------------------|-----1-0------1-1-0---------------------------|
|------------------------------|---0-----3--0-------3-0----- play 6 times ----|
|------------------------------|----------------------------------------------|

verse
|----------------------------------------|----------------------------------------------|
|----------------------------------------|----------------------------------------------|
|----------------------------------------|----2-1------2-2-1--------2-1------2-2-1------|
|----1-0------1-1-0----------------------|--0-----3--0-------3----0-----3--0-------3--0-|
|--0-----3--0-------3-0---- play 4 times |----------------------------------------------|
|----------------------------------------|----------------------------------------------|


|---------------------------------------|-----------------------------------|
|---------------------------------------|-----------------------------------|
|---------------------------------------|-----------------------------------|
|----1-0------1-1-0---------------------|-----------------------------------|
|--0-----3--0-------3-0--- play twice --|----1-0------1-1-0----- play twice |
|---------------------------------------|--0-----3--0-------3---------------|

|-----------------------------------|
|-----------------------------------|
|-----------------------------------|
|-----1-0----1-1-0----- play twice -|
|---0-----3-0------3-0--------------|
|-----------------------------------|

verse two
|------------------------------------------------------------|
|------------------------------------------------------------|
|------------------------------------------------------------|
|----1-0------1-1-0---------------------------- play twice --|
|--0-----3--0-------3-0-----0-0-----0-0-0--------------------|
|-------------------------------0-0-------0-0----------------|


|-----2---2---2---2---2---2---2---2--------|
|-----3---3---3---3---3---3---3---3--------|
|-----2---2---2---2---2---2---2---2--------|
|----0---0---0---0---0---0---0---0---------|
|------------------------------------------|
|------------------------------------------|

|--------------------------------------------|-----------------------------------|
|--------------------------------------------|-----------------------------------|
|--------------------------------------------|-----------------------------------|
|----1-0------1-1-0--------------------------|-----------------------------------|
|--0-----3--0-------3-0---0-0-----0-0-0------|----1-0------1-1-0----- play twice |
|-----------------------------0-0-------0-0--|--0-----3--0-------3---------------|

|----------------------|
|----------------------|
|----------------------|
|----1-0-----1-1-0-----|
|--0-----3-0------3----|
|----------------------|

solo
-------------------------------------------4-5-6-5-4-5------|-------------------------|
------2-3-5--3-2-----2------------2-3-5-6-------------------|-------------------------|
--2-3------------3-3---3-2----2-3---------------------------|----6--------------------|
------------------------------------------------------------|----7--------------------|
------------------------------------------------------------|----7-- play 64 times ! -|
------------------------------------------------------------|----5--------------------|

|----------------------------------------------|-------------------------|
|----------------------------------------------|-------------------------|
|----2-1------2-2-1--------2-1------2-2-1------|----6--------------------|
|--0-----3--0-------3----0-----3--0-------3--0-|----7--------------------|
|----------------------------------------------|----7-- play 64 times ! -|
|----------------------------------------------|----5--------------------|

|-----------------------------------|--------------------------------|
|-----------------------------------|--------------------------------|
|-----------------------------------|--------------------------------|
|-----------------------------------|----1-0-----1-1-0---------------|
|----1-0------1-1-0----- play twice |--0-----3-0------3---play twice-|
|--0-----3--0-------3---------------|--------------------------------|


|---------------------------------------|-----------------------------------|
|---------------------------------------|-----------------------------------|
|---------------------------------------|-----------------------------------|
|----1-0------1-1-0---------------------|-----------------------------------|
|--0-----3--0-------3-0--- play twice --|----1-0------1-1-0----- play twice |
|---------------------------------------|--0-----3--0-------3---------------|


|------------------------------------------------------------|
|------------------------------------------------------------|
|------------------------------------------------------------|
|----1-0------1-1-0---------------------------- play twice --|
|--0-----3--0-------3-0-----0-0-----0-0-0--------------------|
|-------------------------------0-0-------0-0----------------|

|-----2---2---2---2---2---2---2---2--------|---------------------------------------|
|-----3---3---3---3---3---3---3---3--------|---------------------------------------|
|-----2---2---2---2---2---2---2---2--------|---------------------------------------|
|----0---0---0---0---0---0---0---0---------|----1-0------1-1-0---------------------|
|------------------------------------------|--0-----3--0-------3-0--- play twice --|
|------------------------------------------|---------------------------------------|

|-------------------------------------------4-5-6-5-4-5-----------------|
|------2-3-5--3-2-----2------------2-3-5-6------------------------------|
|--2-3------------3-3---3-2----2-3--------------------------------------|
|-------------------------------------------------------play twice -----|
|-----------------------------------------------------------------------|
|-----------------------------------------------------------------------|

|-------------------------|
|-------------------------|
|----6--------------------|
|----7--------------------|
|----7-- play 13 times ! -|
|----5--------------------|

  AMAZON PICKS


Wreckingpit - The Psychobilly Homepage December 2017
[Credits] [Link] [Contact] [FAQ]