wreckingpit - The Psychobilly Homepage
The Psychobilly Homepage December 13, 2017, 10:20 pm
> Home > Tabs > Deke Dickerson - what's that cooking
MAIN MENU
[Bands]
[Concerts]
[Flyers]
[Forum]
[Gallery]
[Links]
[Lyrics]
[News]
[Pictures]
[Reviews]
[Shop]
[Sounds]
[Tabs]
[Tattoos]

Search
wreckingpit.com:

PSYCHOBILLY TAB

Deke Dickerson - what's that cooking

Tabbed by: ulysses
Emailaddress: communicatewithulysses@yahoo.com
Instrument: guitar

^ = prebend and release

intro
|----------------------------------------------------5-5-5--6-6-6----7--7--7--7--7-6-7------------|
|--------7^--5-------------------------9-9-9--9-9-9--5-5-5--5-5-5----x--x--x--x--x-x-x------------|
|----9s--------6--4--- play twice ----9-9-9--7-7-7--6-6-6--6-6-6----4--4--4--4--4-3-4------------|
|----------------------------------------------------7-7-7--5-5-5---------------------------------|
|-------------------------------------------------------------------------------------------------|
|-------------------------------------------------------------------------------------------------|


|-12s-------------------------------------------------------------7-7--5-7-5-4-------------------|
|--x------8-7-------------------------------------------------------------------5-----5-----------|
|--9s----x-x--6-4--- play twice -----9-9-9--7-7-7--6-6-6--5-5-5------------------6-4---6---------|
|---------5-4-----------------------------------------------------------------------------6-------|
|---------------------------------------------------------------------------------------------7s-|
|-------------------------------------------------------------------------------------------------|


3rd turnaround into 1st solo
|------------------------------7-7--5-7-5-4------------------------12-----------------------------|
|-------------------------------------------5----------------12-14--------------------------------|
|-9-9-9--7-7-7--6-6-6--5-5-5------------------6--------12-13--------------------------------------|
|---------------------------------------------------14--------------------------------------------|
|-------------------------------------------------------------------------------------------------|
|-------------------------------------------------------------------------------------------------|

rake.........rake..........rake.........rake...........rake
|-12--14--12--12---15--12--12---16-12---12---17-12-----12----------------------------------------|
|-12----------12-----------12-----------12-------------12--14^--12-14-12-------------------------|
|-13----------13-----------13-----------13-------------13----------------13------12-13-----------|
|-14----------14-----------14-----------14-------------14--------------------14--------14--11--9-|
|------------------------------------------------------------------------------------------------|
|------------------------------------------------------------------------------------------------|


|---------------------------------------11s9------|
|------------------7-9---7-9---10-9-10-------------|
|-----------9-8-9------9---------------------------|
|--9-11--9-----------------------------------------|
|--------------------------------------------------|
|--------------------------------------------------|

..rake......rake.......rake
|-----------------------12----12--14^--12-----12s--|
|-12--------12----------12-14--------------14-------|
|-13--------13----------13--------------------------|
|-14--------14----------14--------------------------|
|-14---14---14---14---------------------------------|
|---------------------------------------------------|


ending
|--------------------------------------------------------------|
|--------------------------------------------------------------|
|-9-9-9--7-7-7--6-6-6--5-5-5---4-5-4-3-2-----------------------|
|-----------------------------------------s6-5-4--1-2----------|
|------------------------------------------------------0-2-----|
|-----------------------------------------------------------0--|

  AMAZON PICKS


Wreckingpit - The Psychobilly Homepage December 2017
[Credits] [Link] [Contact] [FAQ]