wreckingpit - The Psychobilly Homepage [ Advertisement Info ]
The Psychobilly Homepage December 13, 2017, 1:08 am
> Home > Tabs > Guana Batz - wonderous place
MAIN MENU
[Bands]
[Concerts]
[Flyers]
[Forum]
[Gallery]
[Links]
[Lyrics]
[News]
[Pictures]
[Reviews]
[Shop]
[Sounds]
[Tabs]
[Tattoos]

Search
wreckingpit.com:

PSYCHOBILLY TAB

Guana Batz - wonderous place

Tabbed by: ulysses
Emailaddress: communicatewithulysses@yahoo.com
Instrument: guitar

intro verse
|-------------------------------------|-------------------------------------------------|
|-------------------------------------|-------------------------------------------------|
|----5-------7------------------------|-----5-------7-----------------------5-------9---|
|--7---7---7---5-repeat as necessary -|---7---7---7---7- repeat 3 times --7---7---9---9-|
|7-------5----------------------------|-7-------5-----------------------7-------7-------|
|-------------------------------------|-------------------------------------------------|

bridge
|-----------------------------------------------|
|------------------------------------------3----|
|-----5---------3---------1---------0------2----|
|---7---7-----5---5-----3---3-----2---2----0----|
|-7-------7-5-------5-3-------3-2-------2-------|
|-----------------------------------------------|

middle 8
|----------------------------------------------------------------------------------|
|------------------------------------9---------------------3----1------------------|
|-------7-------5--------------------9------7-------5------4----2------------------|
|----7----7---7---7- repeat 3 times -9----7---7---7---7----5----3------------------|
|--5--------7------------------------7--5-------7----------5----3------------------|
|----------------------------------------------------------------------------------|

solo
|--12-12------------------------/s12-12-----------------------------------------------------------10-|
|--------13--15-15--13--15s------------13--15-15--13-15-12----10--13-10-13-15--16-15-13-15s/17---10-|
|-------------------------------------------------------------------------------------------------11-|
|-------------------------------------------------------------------------------------------------12-|
|----------------------------------------------------------------------------------------------------|
|----------------------------------------------------------------------------------------------------|

  AMAZON PICKS


Wreckingpit - The Psychobilly Homepage December 2017
[Credits] [Link] [Contact] [FAQ]