wreckingpit - The Psychobilly Homepage
The Psychobilly Homepage December 14, 2017, 10:36 pm
> Home > Tabs > Quakes, The - What Will they Say
MAIN MENU
[Bands]
[Concerts]
[Flyers]
[Forum]
[Gallery]
[Links]
[Lyrics]
[News]
[Pictures]
[Reviews]
[Shop]
[Sounds]
[Tabs]
[Tattoos]

Search
wreckingpit.com:

PSYCHOBILLY TAB

Quakes, The - What Will they Say

Tabbed by: ulysses
Emailaddress: communicatewithulysses@yahoo.com
Instrument: guitar

^ = bend
b|r = bend release
b|h = bend and hold
s = slide

intro:

The arpeggiated Eminor is played almost like a rake.

|-----------------------0-0-0-x-0-0-0-----------0------------------------------------------------|
|-7-7-7-x---7-7-7-7-7---0-0-0-x-0-0-0------------0------------------5-5-5-5---5-5-5--5-5-5--5-5--|
|-7-7-7-x---7-7-7-7-7---2-2-2-x-2-2-2----------0---0----------------3-3-3-3---3-3-3--3-3-3--3-3--|
|-9-9-9-x---9-9-9-9-9---4-4-4-x-4-4-4--4-3-2---2-----2--------------2-2-2-2---2-2-2--2-2-2--2-2--|
|-9-9-9-x---9-9-9-9-9---4-4-4-x-4-4-4----------2--------2-----------4-4-4-4---4-4-4--4-4-4--4-4--|
|----------------------------------------------0------------0-0-1-2------------------------------|


|-7-9-7--7-7-7-9-7---4------------0--------------------------------------------------------------|
|-7-7-7--7-7-7-7-7---2-------------0------------------5-5-5-5---5-5-5--5-5-5--5-5----------------|
|-7-7-7--7-7-7-7-7---2----4-3-2--0---0----------------3-3-3-3---3-3-3--3-3-3--3-3----------------|
|-9-9-9--9-9-9-9-9---4-----------2-----2--------------2-2-2-2---2-2-2--2-2-2--2-2----------------|
|--------------------------------2-------2------------4-4-4-4---4-4-4--4-4-4--4-4----------------|
|--------------------------------0-----------0-0-1-2---------------------------------------------|

verse: the verses are very slight variations on the intro. Often the 9th is added on and off to the B minor, and the rhythm of the E minor arpeggio is altered etc., etc..


chorus:
listen for the rhythm!
|----------------------------------------------------------------|
|----------------------------------------------------------------|
|----------------------------------------------------------------|
|--9---5--4--5--7------------------------------------------------|
|--9---5--4--5--7------------------------------------------------|
|--7---3--2--3--5------------------------------------------------|

solo
|---------7-7-7------------------------------------------------------------------|
|-------7--------10-10-10-10-7---------------------------------------------------|
|--9-10------------------------9s10--7-9--7------9b|r---7----------------7--7----|
|-----------------------------------------------------9---9-9-9----9-9-9---9-----|
|--------------------------------------------------------------------------------|
|--------------------------------------------------------------------------------|

|-------------------------------------------------------------------10-12-12-12b|r--|
|---------------------------------------------------10-10-10-10-s12-----------------|
|-9b|h--9-9-9-9-9-9-9--9b|r-7----7--9-7--9b|h-9-9-9---------------------------------|
|-----------------------------9-----------------------------------------------------|
|-----------------------------------------------------------------------------------|
|-----------------------------------------------------------------------------------|

|------------------------------------------------------------------------------------|
|-12-12-12-12--10-10-10-10--9-9-9-9--7-7-7-7----7------------------------------------|
|--------------------------------------------9^---x-10-9-7-9-7--9b|r---7-------------|
|--------------------------------------------------------------------9---9-9-9-9-9---|
|------------------------------------------------------------------------------------|
|------------------------------------------------------------------------------------|

|-----------------------------------------------------------------------------|
|--------------------------3-5-5b|r-3-5---5b|h-5-5-5-5r--3-5--3---------------|
|-----------------------s4---------------------------------------4-4----------|
|--9-7------------------------------------------------------------------------|
|-------9-8-7-8-9-------------------------------------------------------------|
|-----------------------------------------------------------------------------|


the Eminor in this section is almost played like a rake

|-9-----9--4---------------0----------------------------------------------|
|-7-----7--2-----2--1-------0------------5-5-5-5-5-5-5-5-5-5-5-5----------|
|-7-----7--2-----2--1----0---0-----------3-3-3-3-3-3-3-3-3-3-3-3----------|
|-9-----9--4-----4--3----2----2----------2-2-2-2-2-2-2-2-2-2-2-2----------|
|------------------------2-----2---------4-4-4-4-4-4-4-4-4-4-4-4----------|
|------------------------0------0-0-1-2-----------------------------------|

  AMAZON PICKS


Wreckingpit - The Psychobilly Homepage December 2017
[Credits] [Link] [Contact] [FAQ]