wreckingpit - The Psychobilly Homepage [ Advertisement Info ]
The Psychobilly Homepage December 17, 2017, 9:47 am
> Home > Tabs > Celtic Boner - Punk 'n' Roll Fucker
MAIN MENU
[Bands]
[Concerts]
[Flyers]
[Forum]
[Gallery]
[Links]
[Lyrics]
[News]
[Pictures]
[Reviews]
[Shop]
[Sounds]
[Tabs]
[Tattoos]

Search
wreckingpit.com:

PSYCHOBILLY TAB

Celtic Boner - Punk 'n' Roll Fucker

Tabbed by: Johann
Emailaddress: johann.online@gmx.de
Instrument: guitar

from The "Betty Ford EP"

1st part:

"I was never born a loser but I don't have much luck.." / "I'm gonna drink some beer & gamble, let that dice roll.."
e--------------------
h--------------------
g--------------------
D--------------------
A--9-/--10-10-10-10--
E--7-/---8--8--8--8--


"yeah but I don't give a fuck..." / "yeah fucked up Rock 'n' Roll..."

e-------------------------
h-------------------------
g-------------------------
D--8-8-8-8-8--------------
A--6-6-6-6-6--8--9--10----
E-------------6--7---8----

"I got roused when I hear that rebel yell"
e-------------------------------------------------------------------------
h-------------------------------------------------------------------------
g-------------------------------------------------------------------------
D--9-/-10-10-10-10---9-/-10-10-10-10--------------------------------------
A--7-/--8--8--8--8---7-/--8--8--8--8---9-/-10-10-10-10--9-/-10-10-10-10---
E--------------------------------------7-/--8--8--8--8--7-/--8--8--8--8---

"Well I can't stop when I'm raisin' fuckin' hell"

e------------------------------------------------------------
h------------------------------------------------------------
g------------------------------------------------------------
D--9-/-10-10-10-10---9-/-10-10-10-10--12---------------------
A--7-/--8--8--8--8---7-/--8--8--8--8--10--x12----------------
E------------------------------------------------------------

"Well you can't put me down when I really go to town"

e------------------------------------------------------------
h------------------------------------------------------------
g------------------------------------------------------------
D---------------------8-8--10-10-10-10-10-10--13-13----------
A--10-10-10-10-10-10--6-6---8--8--8--8--8--8--11-11----------
E---8--8--8--8--8--8-----------------------------------------

"Cause I'm a Punk 'n' Roll Fucker and I ain't fuckin' around"

e------------------------------------------------------------
h------------------------------------------------------------
g------------------------------------------------------------
D------8-10-11-12-10-8-7-------------------------------------
A--10--6--8--9-10--8-6-5-10----------------------------------
E---8---------------------8----------------------------------


first solo
rhythm guitar plays C

second solo
rythm guitar has this chord progression:

e--------------------
h--------------------
g--------------------
D--------------------
A--7-7-7-7-7-7-------
E--5-5-5-5-5-5--x4--


e--------------------
h--------------------
g--------------------
D--5-5-5-5-5---------
A--3-3-3-3-3--5-6-7--
E-------------3-4-5--

e------------------------------------------------------------
h------------------------------------------------------------
g------------------------------------------------------------
D--6-/--7-7-7-7-7-7---6-/--7-7-7-7-7-7-----------------------
A--4-/--5-5-5-5-5-5---4-/--5-5-5-5-5-5--7--------------------
E---------------------------------------5--x12---------------

e------------------------------------------------------------
h------------------------------------------------------------
g------------------------------------------------------------
D--6-/--7-7-7-7-7-7---6-/--7-7-7-7-7-7--9--------------------
A--4-/--5-5-5-5-5-5---4-/--5-5-5-5-5-5--7--x12---------------
E------------------------------------------------------------

e----------------|--------------------------------------------
h----------------|--------------------------------------------
g----------------|--------------------------------------------
D------5--7--10--|----5-7-8-9-7-5-4---------------------------
A---7--3--5---8--|--7-3-5-6-7-5-3-2-7-------------------------
E---5------------|--5---------------5-------------------------

structure:

1st part

first solo

1st part

second solo

1st part


Hell yeah + have fun ;)


Note: If you have any corrections concerning this song or even figured out the soli
feel free to email me: johann.online@gmx.de

  AMAZON PICKS


Wreckingpit - The Psychobilly Homepage December 2017
[Credits] [Link] [Contact] [FAQ]