wreckingpit - The Psychobilly Homepage
The Psychobilly Homepage December 15, 2017, 2:16 am
> Home > Tabs > Batmobile - Rockin Rooster
MAIN MENU
[Bands]
[Concerts]
[Flyers]
[Forum]
[Gallery]
[Links]
[Lyrics]
[News]
[Pictures]
[Reviews]
[Shop]
[Sounds]
[Tabs]
[Tattoos]

Search
wreckingpit.com:

PSYCHOBILLY TAB

Batmobile - Rockin Rooster

Tabbed by: Steffan
Emailaddress: steffan_ramone@hotmail.com
Instrument: guitar

A lot in the song is Palm Muted, i didn't bother to put that in, so you'll
have to
figure that out yourself.

Intro
E------------------------3-5-3-5-3-6666-3---------------------1010101010101010-13
B------------------------3-5-3-5-3-6666-3---------------------1010101010101010-10
G--------------------------------------------------------------------------------
D--------------------------------------------------------------------------------
A--------55-75-----------------------------------55-75---------------------------
E-33--77------33-7-5-----------------------33-77-------33-7-5--------------------

Verse
E--------------------------------------------------------------------------------
B--------------------------------------------------------------------------------
G--------------------------------------------------------------------------------
D--------------------------------------------------------------------5-----------
5
A-------55-75------5----------55-77-88-7-5----------55
75-------5----5-----------
E-33-77-------33-7------33-77-----------------33-77-------33-7-------3-----------

Refrain
E--------------------------------------------------------------------------------
B--------------------------------------------------------------------------------
G--------------------------------------------------------------------------------
D-------55--75------5-----------------------------77-97----------5---------------
A-33-77--------33-7----------55-75--------55-99---------33-7-5---5---------------
E----------------------33-77-------33-75-------------------------3---------------


SOLO (I know for sure this isn't right at all, but hey! its better than
nothing)
E--------------------------------------------------------------------------------
B--------------------------------------------------------------------------------
G----------------------------------------------------99-11-9------9--------------
D---------------------------77-97-1010-99----77-11-11--------7
11----------------
A-------55
75------5---55-99-----------------------------------------------------
E-33-77-------33-7---------------------------------------------------------------

E--------------------------------------------------------------------------------
B--------------------------------------------------------------------------------
G-10-12b12b12b12b-10-12b12b12b12b-10-12b12b12b12b-12~~~~~------------------------
D--------------------------------------------------------------------------------
A--------------------------------------------------------------------------------
E--------------------------------------------------------------------------------

E-2-2/3-3-2-3--2-2/3-3-2-3---4-4/5-5-4455-4455-4455-45----22-3333-44-555-66-7-8--
B-2-2/3-3-2-3--2-2/3-3-2-3---4-4/5-5-4455-4455-4455-45---------------------------
G--------------------------------------------------------------------------------
G--------------------------------------------------------------------------------
D--------------------------------------------------------------------------------
A--------------------------------------------------------------------------------
E--------------------------------------------------------------------------------

  AMAZON PICKS


Wreckingpit - The Psychobilly Homepage December 2017
[Credits] [Link] [Contact] [FAQ]