wreckingpit - The Psychobilly Homepage [ Advertisement Info ]
The Psychobilly Homepage December 15, 2017, 2:28 am
> Home > Tabs > Quakes, The - Killing Moon
MAIN MENU
[Bands]
[Concerts]
[Flyers]
[Forum]
[Gallery]
[Links]
[Lyrics]
[News]
[Pictures]
[Reviews]
[Shop]
[Sounds]
[Tabs]
[Tattoos]

Search
wreckingpit.com:

PSYCHOBILLY TAB

Quakes, The - Killing Moon

Tabbed by: phil s
Emailaddress: salinas5150@hotmail.com
Instrument: guitar

intro play it twice
~~~ ~~~ ~~~ ~~~
------0---0-------------0----0--------------------------------0---------0---------------0--0-----------------------
------0-----0---0------1-------1----1------------------------0-----------0---0--------1-----1---1---------------
------0-------0---------0---------0---------------------------0--------------0----------0--------0-----------------
------2------------------2--------------------------------------2-------------------------2---------------------------
------2------------------3--------------------------------------2-------------------------3---------------------------
------0---------------------------------------------------------0-------------------------------------------------------

just strum the Em and the C over the verse simple.

chourus

---3--3--3--3-----------3--3--3--3--------3-3--3--3----------3--3--3--3-------------------------------------------
---3--3--3--3-----------4--4--4--4--------3-3--3--3----------4--4--4--4-------------------------------------------
---4--4--4--4-----------5--5--5--5--------4-4--4--4----------5--5--5--5------------------------------------------- -----5--5--5--5-----------5--5--5--5--------5-5--5--5----------5--5--5--5-------------------------------------------
---5--5--5--5-----------3--3--3--3--------5-5--5--5----------3--3--3--3-------------------------------------------
---3--3--3--3--------------------------------3-3--3--3-----------------------------------------------------------------

goes on for about eight bars or so

the riff after the second chourus
~~ ~~ ~~
------------------------------------------------------------------------------------------------------------------------------------------------------------------
---------------------------7--8--10--8--7------------------------------------7--8--10--8--7--8---------------------------------------------------------- ---9-------7-------9-------------------------9---------------9------7----9---------------------------------------------------------------------------------------------
----------------------------------------------------------------------------------------------------------------------------------------------------------------------------------------
----------------------------------------------------------------------------------------------------------------------------------------------------------------------------------------
------------------------------------------------------------------------------------------------------------------------------------------------------------------------------------------
-

thats pretty much the whole song have a listen its great to play along to.

  AMAZON PICKS


Wreckingpit - The Psychobilly Homepage December 2017
[Credits] [Link] [Contact] [FAQ]