wreckingpit - The Psychobilly Homepage
The Psychobilly Homepage December 16, 2017, 10:21 pm
> Home > Tabs > Os Catalepticos - Terrible Nightmares
MAIN MENU
[Bands]
[Concerts]
[Flyers]
[Forum]
[Gallery]
[Links]
[Lyrics]
[News]
[Pictures]
[Reviews]
[Shop]
[Sounds]
[Tabs]
[Tattoos]

Search
wreckingpit.com:

PSYCHOBILLY TAB

Os Catalepticos - Terrible Nightmares

Tabbed by: Conor Obscene
Emailaddress: ultraviolentdroog@yahoo.com
Instrument: guitar

Intro:
e------------------------------------------------------------------------
b------------------------------------------------------------------------
g------------------------4-4-4-4---------------------------------------------
d--3-3-3-3-6-6-6-6-4-4-4-4-4-3----43----4--3-----------------------
a--3-3-3-3-6-6-6-6-2-2-2-2-4-3----43----4--3-----------------------------
e--1-1-1-1-4-4-4-4------------2-1----21----2--1--------------

e------------------------------------------------------------------------
b------------------------------------------------------------------------
g------------------------------------------------------------------------
d-----------2--------0---------------------------2-------0-4-3-----------------
a-0-2-3-2--3-2-0--3-2-0-3-0----0-2-3-2--3-2-0---4-3------------
e------------------------------------2-----------------------2-1-----------

e------------------------------------------------------------------------
b------------------------------------------------------------------------
g------------------------------------------------------------------------
d-3-3-3-3-3-3-3-3-3-6-6-6-6-6-6-5-5-5-5-5------------------
a-3-3-3-3-3-3-3-3-3-6-6-6-6-6-6-5-5-5-5-5------------------
e-1-1-1-1-1-1-1-1-1-4-4-4-4-4-4-3-3-3-3-3-----------------
Chorus:
e----------------------------------------------------------------------------------------------------
b-----------------------------------------------------------------------------------------------------
g--4-4-4-4-8-8-7-7------------8-8-7-7-10101010-8-8-7-7---------------------6---------
d--4-4-4-4-8-8-7-7-8-8-5-5-8-8-7-7-10101010-8-8-7-7-8-8-5-5-8-8-8--6-6-5-3---
a--2-2-2-2-6-6-5-5-8-8-5-5-6-6-5-5-8--8--8--8--6-6-5-5-8-8-5-5-8-8-8--4-6-5-3
e------------------------6-6-3-3--------------------------------------6-6-3-3-6-6-6-----4-3-1--
Bridge 1:
e------------------------------------------------------------------------
b------------------------------------------------------------------------
g------------------------------------------------------------------------
d-------------------------------3-3-3-2-0-------------------------------------
a----------------------------2--------------3-2-----------------------------
e-1-1-1-2-1-1-1-2-1-1--------------------------------------------------------------

Bridge 2
e------------------------------------------------------------------------
b------------------------------------------------------------------------
g------------------------------------------------------------------------
d------------------------------------------------------------------------
a------------------------------------------------------------------------
e-1---4-3-1-----4-3-1----1-1-1-1--4-4-4-3-3-3----------------

Solo 1:

e------------------------------------------------------------------------
b------------------------------------------------------------------------
g--1-2-3-2-1-2-3---3-4-5-4-3-4-5---4-5-6-5-4-5-6---------
d--1-2-3-2-1-2-3---3-4-5-4-3-4-5---4-5-6-5-4-5-6--------
a------------------------------------------------------------------------
e------------------------------------------------------------------------

PUT ALL THOSE PARTS TOGETHER TO MFINISH THE SONG!!
for more psycho and os catalepticos tabs email me at UltraViolentDroog@yahoo.com

  AMAZON PICKS


Wreckingpit - The Psychobilly Homepage December 2017
[Credits] [Link] [Contact] [FAQ]