wreckingpit - The Psychobilly Homepage
The Psychobilly Homepage December 18, 2017, 6:27 pm
> Home > Tabs > Os Catalepticos - Freaks
MAIN MENU
[Bands]
[Concerts]
[Flyers]
[Forum]
[Gallery]
[Links]
[Lyrics]
[News]
[Pictures]
[Reviews]
[Shop]
[Sounds]
[Tabs]
[Tattoos]

Search
wreckingpit.com:

PSYCHOBILLY TAB

Os Catalepticos - Freaks

Tabbed by: Conor Obscene
Emailaddress: ultraviolentdroog@yahoo.com
Instrument: guitar


Palm Mute = ......
Let ring = >>>
Hamer On = ^
intro:
...................................
e------------------------------------------------------------------------------
b------------------------------------------------------------------------------
g-------------------------------------2>>>-0------------------------------
d---0^1----0^1-----3-2------0^1-----------3-2-0-------|x2|-----------
a-0-------0--------0-----3--0------------------------3-2-----------------
e-----------------------------------------------------------------------------

e----------------------------------------------------
b----------------------------------------------------
g----------------------------------------------------
d----------------------------------------------------
a---0^1-----0^1-------3-2-----------------------
e-0--------0---------0------3---------------------

Verse:
.....................
e----------------------------------------------------
b----------------------------------------------------
g--2-2------------------------------------------------
d--2-2--3-3-3-3-2-0----------------------------
a--0-0-------------------3-3-3-3-1-1-3-0-------
e----------------------------------------------------
.............................
e----------------------------------------------------
b----------------------------------------------------
g----------------------------------------------------
d--------------------------------3-2-0-----------
a--0-0-3-0-0-0-0-3-3-3-3---------------------
e----------------------------------------------------

first chorus:

e----------------------0-0-0----------------------------
b----------------------0-0-0-3-3-3-3------------------------
g--2-2------2-2--------------2-2-2-2-2-2------2-2-----------
d--2-2-2-2-2-2-2-2-------------------2-2-2-2-2-2 |ehh|-----------
a-------2-2-------2-2-------------------------2-2------------
e----------------------------------------------------

Verse again

second Chorus:

e----------------------------------------------------
b----------------------------------------------------
g-------------------------2^3--0^1--3------------------------
d------2^3----2^3-0-0--------------3 x2--------------------------
a-0-0-----0-0---------------3-------1-----------------------
e----------------------------------------------------

e----------------------------------------2------------
b----------------------------------------2------------
g----------------------------------------2----------
d------2^3----2^3----3-2-0---------2------------------
a-0-0-----0-0------0---------3-2-0-0-----------------------
e----------------------------------------------------

intro again

e------------------------------------------------------------------------
b-----------------------1>>>-------------------------------------------------
g---0^1--0^1--3-2----------3-2-0-------------------------------------------5------------------
d-0-----0-----0-----3----------------3-2-0-----5^6---5^6--8-7------5^6---8-7-5----------------
a-------------------------------------------------5------5-----5-----8-5------------------8-7-5-----
e-------------------------------------------------------------------------------------------------------

e------------------------------------------------------------------------
b------------------------------------------------------------------------
g------------------------------------------8------------------------------
d---8^9----8^9----11-10-------8^9-----11-10-8------------------
a-8-------8------8----------11-8---------------------11-10-8----
e------------------------------------------------------------------------

Thats it up those parts together to finish the song!!

  AMAZON PICKS


Wreckingpit - The Psychobilly Homepage December 2017
[Credits] [Link] [Contact] [FAQ]