wreckingpit - The Psychobilly Homepage
The Psychobilly Homepage December 15, 2017, 9:57 am
> Home > Tabs > Batmobile - Love Disease
MAIN MENU
[Bands]
[Concerts]
[Flyers]
[Forum]
[Gallery]
[Links]
[Lyrics]
[News]
[Pictures]
[Reviews]
[Shop]
[Sounds]
[Tabs]
[Tattoos]

Search
wreckingpit.com:

PSYCHOBILLY TAB

Batmobile - Love Disease

Tabbed by: ulysses
Emailaddress: communicatewithulysses@yahoo.com
Homepage: http://www.notpunk.com
Instrument: guitar

Rather than write this out sequentially as it appears in the song, I have just broken this up into pieces.

intro riff intro/main riff verse riff
|-------------------------|-----------------------|--------------------------------------------------|
|-------------------------|-----------------------|--------------------------------------------------|
|--0-(1)------------------|--0--------------------|---0---------0------------0-------0-0-------------|
|--------2-0--------------|----2-0----------------|-----2-0-2-2---2-2-0--------2-0-2-----2-2-0-------|
|------------2-2-2-0------|---------2-2-2-0-------|--------------------------------------------------|
|-0-------------------3---|-0----------------3----|--0---------------------0-------------------------|

chorus chords
|------------------10s----------------------------------------------------|
|------------------10s----------------------------------------------------|
|--5-5-5----7------11s-----0---------0------------0-------0-0-------------|
|--5-5-5----7------12s-------2-0-2-2---2-2-0--------2-0-2-----2-2-0-------|
|--3-3-3----5--------------------------------------------------------------|
|-------------------------0---------------------0--------------------------|

solo
|-12-13-10-12----------------------------------------------------------------0---0-0--0--0--0--------|
|-12-13-10-12-----------------------------------------------0--3-5---8-7-5---5-----5--3--2--0--------|
|-12-13-10-12--------------------------------------------------------------7-------------------------|
|-----------------------------------------5---7-6-5-----5--------------------------------------------|
|-----------------5--7-6-5----5-----5-6-7------------7-----------------------------------------------|
|-----------5-6-7-----------7------------------------------------------------------------------------|

|----------------------------------------------------------------------------0---0-0--0--0--0--------|
|-----------------------------------------------------------0--3-5---8-7-5---5-----5--3--2--0--------|
|--------------------------------------------------------------------------7-------------------------|
|-----------------------------------------5---7-6-5-----5--------------------------------------------|
|-----------------5--7-6-5----5-----5-6-7------------7-----------------------------------------------|
|-----------5-6-7-----------7------------------------------------------------------------------------|

|-----------------------------------------------------------------------------------------------------------|
|-----------------------------------------------------------------------------------------------------------|
|-5-3-3-3--7-7-7-7----2-1-0-----------------------5-5-5-5-5--7-7-7-7-7----0-------------------0-------------|
|-5-3-3-3--7-7-7-7----------2-1-0-----------------5-5-5-5-5--7-7-7-7-7------2-0-----------------2-0---------|
|-3-3-3-3--5-5-5-5----------------2-1-0-----------3-3-3-3-3--5-5-5-5-5----------2-2-0---------------2-2-0---|
|----------------------------------------3-2-1--------------------------0-------------3----0--------------3-|

if you found this of any use give me feedback! communicatewithulysses@yahoo.com


  AMAZON PICKS


Wreckingpit - The Psychobilly Homepage December 2017
[Credits] [Link] [Contact] [FAQ]