wreckingpit - The Psychobilly Homepage
The Psychobilly Homepage December 16, 2017, 8:52 am
> Home > Tabs > Sharks, The - Phantom Rockers
MAIN MENU
[Bands]
[Concerts]
[Flyers]
[Forum]
[Gallery]
[Links]
[Lyrics]
[News]
[Pictures]
[Reviews]
[Shop]
[Sounds]
[Tabs]
[Tattoos]

Search
wreckingpit.com:

PSYCHOBILLY TAB

Sharks, The - Phantom Rockers

Tabbed by: ulysses
Emailaddress: communicatewithulysses@yahoo.com
Homepage: http://www.notpunk.com
Instrument: guitar

Written by: whitehouse & hodges
taken from the album phantom rockers
guitarist: Alan Wilson

There is a lot tremelo action going on in this song, so rather than notate it, just assume most chords are played with the tremelo arm bending the pitch of the chord down.

intro
|-------------------------------------------------------------------------------|
|---7-8-9-----7-8-9----7-8-9-----------7-8-9----7-8-9-10-9-7-6-5----------------|
|-9---------9--------9-------9-------9---------9--------------------------------|
|-------------------------------------------------------------------------------|
|-------------------------------------------------------------------------------|
|-------------------------------------------------------------------------------|

first verse
|-12-----------------9-------0-0---------0-0------------0--------12-------------|
|-12-----9-----9-----9-----------3-----------3------------3------12-------------|
|-13-------9-----9---9-------------0-1--------------0-1-----0-1--13-------------|
|-14---------9-----9---------------------------------------------14-------------|
|-------------------------------------------------------------------------------|
|-------------------------------------------------------------------------------|

|-12--------12---15--12---12---------------------5----------5------0---------0----7---5--3-0------------|
|----12-14-------------------15-12-------------------8-5-------------3--0---------7---5------3-0--------|
|----------------------------------13-14-----------------5-6--------------0-1-----8---6-----------0-1---|
|----------------------------------------14---------------------------------------9---7---------------2-|
|-------------------------------------------------------------------------------------------------------|
|-------------------------------------------------------------------------------------------------------|

break
|---------------------------------7-------------------7-------------------------------------------------------|
|---7-8-9-----7-8-9----7-8-9---9-----9---10-8---8--10---10--8-----7-8-9----7-8-9-------7-9-s/12-9----7-8-9----|
|-9---------9--------9-------9-----------------9-----------------9--------9-----------8------------8-9------9-|
|-----------------------------------------------------------------------------------9-------------------------|
|-------------------------------------------------------------------------------------------------------------|
|-------------------------------------------------------------------------------------------------------------|

second verse
|-12-----------------9------12---------0------3-0------0--------12----0----------0---------------------0-------|
|-12-----9-----9-----9------12-----------0-2------0-2----12-14--12------3-0--------3-0-----------------0-------|
|-13-------9-----9---9------13----------------------------------13----------0-1--------0-1------0------1-------|
|-14---------9-----9--------14----------------------------------14--------------------------2-2----2-2-2-------|
|--------------------------------------------------------------------------------------------------------------|
|--------------------------------------------------------------------------------------------------------------|

|-5----------5------12------------12----7---5-----3-0----------------------------------------------------------|
|---8-5-------------12----12-14---12----7---5---------3-0------------------------------------------------------|
|-------5-6---------13------------13----8---6--------------0-1-------------------------------------------------|
|---------------------------------14----9---7-------------------2----------------------------------------------|
|--------------------------------------------------------------------------------------------------------------|
|--------------------------------------------------------------------------------------------------------------|

break
|---------------------------------7-------------------7--------------------------------------------------------|
|---7-8-9-----7-8-9----7-8-9---9-----9---10-8---8--10---10--8-----7-8-9----7-8-9-------7-9-s/12-9----7-8-9-----|
|-9---------9--------9-------9-----------------9-----------------9--------9-----------8------------8-9------9--|
|-----------------------------------------------------------------------------------9--------------------------|
|--------------------------------------------------------------------------------------------------------------|
|--------------------------------------------------------------------------------------------------------------|


third verse
|-12-----------------9------12----0-------0-----------9--0----------0---------0----------9---------------------|
|-12-----9-----9-----9------12-------3------3-0-------9----3-0--------3-0-------3-0------9---------------------|
|-13-------9-----9---9------13---------0-1------0-1---9--------0-1--------0-1-------0-1--9---------------------|
|-14---------9-----9--------14------------------------9----------------------------------9---------------------|
|--------------------------------------------------------------------------------------------------------------|
|--------------------------------------------------------------------------------------------------------------|

|---5------5------5---------0---12-------12---------7--5--3-0--------------------------------------------------|
|-5---8-5----5-8----5-7s---0-----12--------12------7--5------3-0----------------------------------------------|
|---------------------------1--------13--------13---8--6----------0-1------------------------------------------|
|---------------------------2-----------------------9--7--------------2----------------------------------------|
|---------------------------2----------------------------------------------------------------------------------|
|--------------------------------------------------------------------------------------------------------------|

break
|---------------------------------7-------------------7------------------------------------------------------------|
|---7-8-9-----7-8-9----7-8-9---9-----9---10-8---8--10---10--8-----7-8-9----7-8-9-------7-9-s/12-9-----7-8-9--------|
|-9---------9--------9-------9-----------------9-----------------9--------9-----------8------------8-9------9-9-9-9|
|-----------------------------------------------------------------------------------9------------------------------|
|------------------------------------------------------------------------------------------------------------------|
|------------------------------------------------------------------------------------------------------------------|

solo
|-12-12-12-12-12-12-15-15--------------|--5-5-5-5-5-5-8-8----12-12-12-12-12-12-15-15---7-7-7-7-7-7-7--12-12-12-15-12-|
|-12-12-12-12-12-12-14-14- play twice -|--5-5-5-5-5-5-7-7----12-12-12-12-12-12-14-14---7-7-7-7-7-7-7--12-12-12-14-12-|
|--------------------------------------|-----------------------------------------------------------------------------|
|--------------------------------------|-----------------------------------------------------------------------------|
|--------------------------------------|-----------------------------------------------------------------------------|
|--------------------------------------|-----------------------------------------------------------------------------|


fourth verse
|-12-----------------9-------0-------0-0--------0-----------9---12---------12---------15-15-12--12-----------12-|
|-12-----9-----9-----9--------3----------3---------3-0------9------12--14-----12--14--------------15-12---------|
|-13-------9-----9---9----------0-1----------0-1-------0-1--9-------------------------------------------12-13---|
|-14---------9-----9----------------------------------------9---------------------------------------------------|
|---------------------------------------------------------------------------------------------------------------|
|---------------------------------------------------------------------------------------------------------------|


|---5-------------0-----------0------7--5---15-12---------------------------------------------------------------|
|-----8-5---------0--3-0------0------7--5----------15-12--------------------------------------------------------|
|---------5-6-6---1------0-1--1------8--6-----------------12-13-------------------------------------------------|
|-------------7---2-----------2------9--7-----------------------14----------------------------------------------|
|---------------------------------------------------------------------------------------------------------------|
|---------------------------------------------------------------------------------------------------------------|


break
|---------------------------------7-------------------7-------------------------------------------------------12-12-|
|---7-8-9-----7-8-9----7-8-9---9-----9---10-8---8--10---10--8-----7-8-9----7-8-9-------7-9-s/12-9----7-8-9----------|
|-9---------9--------9-------9-----------------9-----------------9--------9-----------8------------8-9------9-------|
|-----------------------------------------------------------------------------------9-------------------------------|
|-------------------------------------------------------------------------------------------------------------------|
|-------------------------------------------------------------------------------------------------------------------|

  AMAZON PICKS


Wreckingpit - The Psychobilly Homepage December 2017
[Credits] [Link] [Contact] [FAQ]