wreckingpit - The Psychobilly Homepage [ Advertisement Info ]
The Psychobilly Homepage December 12, 2017, 9:57 am
> Home > Tabs > Screamin' Jay Hawkins - Frenzy
MAIN MENU
[Bands]
[Concerts]
[Flyers]
[Forum]
[Gallery]
[Links]
[Lyrics]
[News]
[Pictures]
[Reviews]
[Shop]
[Sounds]
[Tabs]
[Tattoos]

Search
wreckingpit.com:

PSYCHOBILLY TAB

Screamin' Jay Hawkins - Frenzy

Tabbed by: Johnny Hound
Instrument: guitar

E|--------------------------------------10-7-10-7-10-7-10------------|
B|------------------------------------------------------------7-------------|
G|--------------------------------------------------------------9-7--------|
D|-------------------------------------------------------------------9------|
A|--------4-2--------------4-2--------------------------------------------|
E|--0--3-------3----0--3--------3---------------------------------------|


VERSE

Verse follows this progression E A E then repeats.

E riff

E|-------------------------------------|
B|-------------------------------------|
G|-------------------------------------|
D|-------------------------------------|
A|--------4-2--------------4-2------|
E|--0--3-------3----0--3--------3---|

A riff

E|---------------------------------------|
B|---------------------------------------|
G|---------------------------------------|
D|--------4-2---------------4-2-------|
A|--0--3-------3-----0--3--------3---|
E|----------------------------------------|

E riff #2

E|-----------------------------------10-7-10-7-10-7-10--------------
B|----------------------------------------------------------7-----------
G|------------------------------------------------------------9-7-------
D|-----------------------------------------------------------------9----
A|--------4-2------------4-2-------------------------------------------
E|--0--3-------3---0--3------3----------------------------------------
(bend)
E|--10-7-10-7-10-7---^14--14--12------------------|
B|------------------------------------------------------------|
G|--------------------------------------14-12--------------|
D|----------------------------------------------14-12------|
A|-----------------------------------------------------------|
E|-----------------------------------------------------------|

( verse ending #2)

E|--^14--12-^14-^14-^14-^14-14----------^14--12--^14----------------------
B|------------------------------------------------12----------------------15-12---------------
G|------------------------------------------------------------------------------------14-12-----
D|------------------------------------------------------------------------------------------------
A|------------------------------------------------------------------------------------------------
E|--------------------------------------------------------------------------------------------------

CHORUS

If love gushes from my heart...
E|---------------------------|
B|---------------------------|
G|---------------------------|
D|--------2-----------------| (X2)
A|--0--4-----------4-2----|
E|------------0--4------4--|

(To end chorus play chords F# B#)

Im not going to spend an hour tabbing out the solo so improvise!
The End
Enjoy!

  AMAZON PICKS


Wreckingpit - The Psychobilly Homepage December 2017
[Credits] [Link] [Contact] [FAQ]