wreckingpit - The Psychobilly Homepage
The Psychobilly Homepage December 16, 2017, 10:06 pm
> Home > Tabs > Reverend Horton Heat - Slow
MAIN MENU
[Bands]
[Concerts]
[Flyers]
[Forum]
[Gallery]
[Links]
[Lyrics]
[News]
[Pictures]
[Reviews]
[Shop]
[Sounds]
[Tabs]
[Tattoos]

Search
wreckingpit.com:

PSYCHOBILLY TAB

Reverend Horton Heat - Slow

Tabbed by: Jordan Snodgrass
Emailaddress: jasnodgr@ucsd.edu
Instrument: guitar

If you've ever seen the Reverend live, you'd notice that he often plucks
the highE/B/G strings with his fingers while he picks the D/A/lowE strings
with his pick. That's how to play this song...

INTRO/VERSE let ring...
E ||--0--------0-------0-----0---------------||
B ||-----------------------------------------||
G ||-----------------------------------------||
D ||-----------------------------------------||
A ||----4-5-6----4-5-6---4-5----3-4-5--------||
E ||-----------------------------------------||

BRIDGE/CHORUS
E ||-----------------------------------------||
B ||-----------------------------------------||
G ||-----------------------------------------||
D ||-----------------------------------------||
A ||-*7-*7-----------------4-4-5-5-6-6-7-7---||
E ||-------4-4-5-5-6-6-7-7-------------------||

* only play those first 2 notes on the first time through the
bridge or chorus.

  AMAZON PICKS


Wreckingpit - The Psychobilly Homepage December 2017
[Credits] [Link] [Contact] [FAQ]