wreckingpit - The Psychobilly Homepage [ Advertisement Info ]
The Psychobilly Homepage December 15, 2017, 11:55 am
> Home > Tabs > Reverend Horton Heat - I Can't Surf
MAIN MENU
[Bands]
[Concerts]
[Flyers]
[Forum]
[Gallery]
[Links]
[Lyrics]
[News]
[Pictures]
[Reviews]
[Shop]
[Sounds]
[Tabs]
[Tattoos]

Search
wreckingpit.com:

PSYCHOBILLY TAB

Reverend Horton Heat - I Can't Surf

Tabbed by: Jordan Snodgrass
Emailaddress: jasnodgr@ucsd.edu
Instrument: guitar

These are the 3 main parts of the song..psycho-solos not included.

INTRO
E ||-------------------------------------------------------------
B ||-------------------------------------------------------------
G ||-------------------------------------------------------------
D ||--7-7-7-7-7-7-7-7-16-16-16-16-16-17-17-17-17-17-19-19-19-19-
A ||--0-0-0-0-0-0-0-0--0--0--0--0--0--0--0--0--0--0--0--0--0--0--
E ||-------------------------------------------------------------

VERSE
E ||-----------------------------
B ||-----------------------------
G ||-----------------------------
D ||--7--7--7--5--7--7--7--7--5-- REPEAT A COUPLE OF TIMES
A ||--7--7--7--5--7--7--7--7--5--
E ||--5--5--5--5--5--5--5--5--5--
"i can't surf..."

POST-LYRICS JAM
E ||----------------------------------------------------------1---
B ||----------------------------------------------------------1---
G ||--------------2-2-1-1-----0-0------------------2-2-1-1----1---
D ||----------2-2---------2-2-----1-1----------2-2---------2--3---
A ||--0-0-3-3--------------------------0-0-3-3----------------3---
E ||----------------------------------------------------------1--- ring...

E --------------------------------------------------------------||
B --------------------------------------------------------------||
G -------------2-2-1-1-----0-0----------------------------------||
D ---------2-2---------2-2-----1-1------2-2-1-1-----------------||
A -0-0-3-3--------------------------3-3---------2-2-----2-------||
E --------------------------------------------------3-3---0-----||

  AMAZON PICKS


Wreckingpit - The Psychobilly Homepage December 2017
[Credits] [Link] [Contact] [FAQ]