wreckingpit - The Psychobilly Homepage
The Psychobilly Homepage December 11, 2017, 2:50 pm
> Home > Tabs > Reverend Beat-Man - Back In Hell
MAIN MENU
[Bands]
[Concerts]
[Flyers]
[Forum]
[Gallery]
[Links]
[Lyrics]
[News]
[Pictures]
[Reviews]
[Shop]
[Sounds]
[Tabs]
[Tattoos]

Search
wreckingpit.com:

PSYCHOBILLY TAB

Reverend Beat-Man - Back In Hell

Tabbed by: Johnny Hound
Instrument: guitar

Heres a riff i've always got stuck in my head. I find myself playing it
usually when ive got a guitar in my hand and i zone out watching tv.

E|-------------------------------------------------------------------------
B|--------------------------------------------------------------------------
G|--------2-2-------------------------0-0--------------------------------
D|--------------------------------------------------------------------------
X3
A|---0----------0---0--0-0-0--2--3---------3---3-3-3-2--0--------
E|--------------------------------------------------------------------------

E|-----------------------------------------------------------------|
B|-----------------------------------------------------------------|
G|-----------------------------------------------------------------|
D|-------2-2--------------------------2-2-----------------------|
A|----------------------3-3-2------------------------3-3-2-----|
E|---0----------0--0-------------0-----------0--0--------------|

Thats all folks! Just this riff repeated till the end. Very repetitive but i
find it's equally as haunting and catchy. Heres an alternative way to
playing it adding a few notes that i find gives it a little spice.

Alternate version.

E|-------------------------------------------------------------------------
B|--------------------------------------------------------------------------
G|--------2-2-----2---------------------0-0------0---2^0-------------
D|------------------------------------------------------------2------------
X3
A|---0----------0----0--0-0-0--2--3----------3-----------------------
E|--------------------------------------------------------------------------

E|-----------------------------------------------------------------|
B|-----------------------------------------------------------------|
G|-----------------------------------------------------------------|
D|-------2-2-------2-------------------2-2----------------------|
A|----------------------3-3-2------------------------3-3-2-----|
E|---0----------0---------------0-----------0--0----------------|

  AMAZON PICKS


Wreckingpit - The Psychobilly Homepage December 2017
[Credits] [Link] [Contact] [FAQ]