wreckingpit - The Psychobilly Homepage
The Psychobilly Homepage December 18, 2017, 1:10 am
> Home > Tabs > Quakes, The - Leedspond boogie
MAIN MENU
[Bands]
[Concerts]
[Flyers]
[Forum]
[Gallery]
[Links]
[Lyrics]
[News]
[Pictures]
[Reviews]
[Shop]
[Sounds]
[Tabs]
[Tattoos]

Search
wreckingpit.com:

PSYCHOBILLY TAB

Quakes, The - Leedspond boogie

Tabbed by: ulysses
Emailaddress: communicatewithulysses@yahoo.com
Homepage: http://www.notpunk.com
Instrument: guitar

taken from the album - last of the human beings
guitarist: Paul Roman

|------7-11-7---7-10-7---7--s/11-7------7---7--------11-7---7-10-7------7---------------|
|-7-9---------9--------9------------7-9---9---7-9---------9--------9-7----9-7-----------|
|-----------------------------------------------------------------------------7h8-------|
|---------------------------------------------------------------------------------9-----|
|---------------------------------------------------------------------------------------|
|---------------------------------------------------------------------------------------|

|-----7-11-7---7-10-7---7-s/11-7------7---7--------11-7----7-9^-9b/r-7---7--------------|
|-7-9--------9--------9-----------7-9---9---7-9---------9--------------9---9------------|
|-----------------------------------------------------------------------------8h7-------|
|----------------------------------------------------------------------------------9s--|
|---------------------------------------------------------------------------------------|
|---------------------------------------------------------------------------------------|

|-7---0--7-7-7-7---------------------7--2--7-7-7-7--|
|-7---0--7-7-7-7---------------------7--2--7-7-7-7--|
|-8---1--8-8-8-8--- repeat 3 times --8--3--8-8-8-8--|
|-9---2--9-9-9-9---------------------9--4--9-9-9-9--|
|-9---2--9-9-9-9---------------------9--4--9-9-9-9--|
|-7---0--7-7-7-7---------------------7--2--7-7-7-7--|

|---------------------------------------------------------------------|
|------4------4----------4------4-----------4-----4----------4--------|
|----4------4-----4----4------4-----4----4------4----------4---4------|
|--6------6-----6----5-----5------5----4------4------1-2-3---------3--|
|---------------------------------------------------------------------|
|---------------------------------------------------------------------|

|------------------------------2-------------------------------------------10-7----------|
|----------------------------2---------12------12------12-----12------12---------9-------|
|--4----4----4----4--------3-------14^-----14^-----14^----14^-----14^--------------7h8---|
|----6----6----6-----6---4-------------------------------------------------------------9-|
|----------------------------------------------------------------------------------------|
|----------------------------------------------------------------------------------------|

|------7-11-7---7-10-7---7--s/11-7------7---7--------11-7---7-10-7------7---------------|
|-7-9---------9--------9------------7-9---9---7-9---------9--------9-7----9-7-----------|
|-----------------------------------------------------------------------------7h8-------|
|---------------------------------------------------------------------------------9-----|
|---------------------------------------------------------------------------------------|
|---------------------------------------------------------------------------------------|

|-----7-11-7---7-10-7---7-s/11-7------7---7--------11-7----7-9^-9b/r-7---7--------------|
|-7-9--------9--------9-----------7-9---9---7-9---------9--------------9---9------------|
|-----------------------------------------------------------------------------8h7-------|
|----------------------------------------------------------------------------------9s--|
|---------------------------------------------------------------------------------------|
|---------------------------------------------------------------------------------------|

|----4-------------------------------------4--4-------4-----------------2------------2---4--6-------7---------7----------|
|--------4-----4-----4---6--4-------------------4----------4-4----------------2--------------------------7---------------|
|----------5--------------------------------------4------------4-----------------3--------------------------8------------|
|------------------------------------------3------3-----3----------------------------------------------------------------|
|----6-----6------6------6--------------4-----4-------4----4------------4--------4-----4------------9-------9------------|
|-4----4-------4-----4-----------------------------------------------2------2--------2-----------7-----7-------7---7-6-5-|

|-4--4------4-------4------------------4--4---------------4------------2--2-----2------2--------7-7-7-7-7-7-7------------|
|------4------4-------4---------------------4-----4----4----4---------------2------------2------7-7-7-7-7-7-7------------|
|---------5------5-------5---------------------4------------------------------3-----------------6-6-6-6-6-6-6------------|
|-----------------------------------------3-------3----3----------------------------------------9-9-9-9-9-9-9------------|
|----6------6-------6-------------(4)--4-------4-----4----4------------4------4-----4------4----9-9-9-9-9-9-9------------|
|-4------4-------4-------4-------------------------------------------2----2------2-----2--------7-7-7-7-7-7-7------------|

|------7-11-7---7-10-7---7--s/11-7------7---7--------11-7---7-10-7------7---------------|
|-7-9---------9--------9------------7-9---9---7-9---------9--------9-7----9-7-----------|
|-----------------------------------------------------------------------------7h8-------|
|---------------------------------------------------------------------------------9-----|
|---------------------------------------------------------------------------------------|
|---------------------------------------------------------------------------------------|

|-----7-11-7---7-10-7---7-s/11-7------7---7--------11-7----7-10-9-7------7--------------|
|-7-9--------9--------9-----------7-9---9---7-9---------9-----------9----7--------------|
|------------------------------------------------------------------------8--------------|
|------------------------------------------------------------------------9--------------|
|------------------------------------------------------------------------9--------------|
|------------------------------------------------------------------------7--------------|

if you found this of any use give me feedback! communicatewithulysses@yahoo.com

  AMAZON PICKS


Wreckingpit - The Psychobilly Homepage December 2017
[Credits] [Link] [Contact] [FAQ]