wreckingpit - The Psychobilly Homepage [ Advertisement Info ]
The Psychobilly Homepage December 12, 2017, 10:04 am
> Home > Tabs > Nekromantix - Who killed the cheerleader
MAIN MENU
[Bands]
[Concerts]
[Flyers]
[Forum]
[Gallery]
[Links]
[Lyrics]
[News]
[Pictures]
[Reviews]
[Shop]
[Sounds]
[Tabs]
[Tattoos]

Search
wreckingpit.com:

PSYCHOBILLY TAB

Nekromantix - Who killed the cheerleader

Tabbed by: Billy Moretti
Emailaddress: rockabillyfreak555@yahoo.com
Instrument: guitar

Tuning:E a d g b e

intro:
e|-----------------------------------------------------------------------------|
B|-----------------------------------------------------------------------------|
G|-----------------------------------------------------------------------------|
D|-3/5...--1-3/5-3-1--1-3/5-3-1--1-3/5-3-1--1-3/5-3-1-5-5-5-3-3-3--|
A|-1/3..-3------------1------------1------------1------------3-3-3-1-1-1--|
E|-----------------------------------------------------------------------------|

e|--------------------------------------------------------------------------|
B|--------------------------------------------------------------------------|
G|--------------------------------------------------------------------------|
D|---1-3/5-3-1----1-3/5-3-1----1-3/5-3-1---1-3/5-3-1---------------|
A|-3------------1------------1-----------1---------6-6-6-6-6-6-3-3-3-3-3-3|
E|---------------------------------------------------4-4-4-4-4-4-1-1-1-1-1-1|
chorus: oooOOOO
e|--------------------------------------------------------------------------|
B|--------------------------------------------------------------------------|
G|---5-------------------------3---------------3----------------------------|
D|---5-------------------------3---------------3-------------6-----3--------|
A|---3-------------------------1---------------1-------------6-----3--------|
E|-----------------------------------------------------------4-----1--------|
who killed the cheerleader,you did you did,o no it wasnt me at all
e|--------------------------------------------------------------------------|
B|--------------------------------------------------------------------------|
G|--5-----------------------3---------------3-------------------------------|
D|--5-----------------------3---------------3------------------------6---3|
A|--3-----------------------1---------------1------------------------6---3|
E|--------------------------------------------------------------------4---1|
who raped the promqueen,he did he did,yeah right she was havin a ball
verse:
e|-----------------------------------------------------------|
B|------------------------6---5---------6~---------5------|
G|----5-777--5-777---6---5--5-777----7-5---5---6----|
D|----0-000--0-000--7---5---0-000---------5-----7----|
A|-----------------------------------------------------------|
E|-----------------------------------------------------------|
huh!
e|-----------------------------------------------|
B|--------------------6---5-------6~------5------|(4x)
G|----5-777--5-777---6---5--5-777---7-5--5--6----|(palm mute)
D|----0-000--0-000--7---5---0-000-------5---7----|(last time can hardle A|-----------------------------------------------|hear till last part of lick

E|-----------------------------------------------|
i asked her out.....ect.

CHORUS 1X
VERSE 1X
CHORUS 1X

INTRO TO SOLO:
e|--------------------------------------------------------------------------|
B|--------------------------------------------------------------------------|
G|--------------------------------------------------------------------------|
D|-----1-3/5-3-1----1-3/5-3-1----1-3/5-3-1----1-3/5-3-1-----5-5-5-3-3-3|
A|----3------------1--------------1-------------1------------------3-3-3-1-1-1|
E|--------------------------------------------------------------------------|
SHE WAS...
e|--------------------------------------------------------------------------|
B|--------------------------------------------------------------------------|
G|--------------------------------------------------------------------------|
D|---1-3/5-3-1----1-3/5-3-1----1-3/5-3-1---1-3/5-3-1----------------------|
A|-3------------1------------1-----------1------------------6-6-6-6-6-6-3-3-3-
E|------------------------------------------------------------4-4-4-4-4-4-1-1-1-
SOLO:
e|--6/8-8-8-6-8-------------------------------------------------------------|
B|--6/8-8-8-6-8--7/9-9-9-8-9-8----------------------------------------------|
G|---------------6/8-8-8-7-8-7--7~-5-7_8-7-5-7_8-7-5--------------|
D|--------------------------------------------------------------------------|
A|--------------------------------------------------------------------------|
E|--------------------------------------------------------------------------|

e|------------------------------------------------------------------15------|
B|--------------------------------------------------------------------------|
G|--------------------------------------------------------------------------|
D|--------------------------------------------------------------------------|
A|--------------------------------------------------------------------------|
E|--------------------------------------------------------------------------|

(chorus goes a step higher)
e|--------------------------------------------------------------------------|
B|--------------------------------------------------------------------------|
G|--7--------------------------5---------------5----------------------------|
D|--7--------------------------5---------------5-------------8-----5--------|
A|--5--------------------------3---------------3-------------8-----5--------|
E|-----------------------------------------------------------6-----3--------|
who killed the cheerleader,you did you did,o no it wasnt me at all
e|--------------------------------------------------------------------------|
B|--------------------------------------------------------------------------|
G|--7-----------------------5---------------5-------------------------------|
D|--7-----------------------5---------------5--------------------------8---5|
A|--5-----------------------3---------------3--------------------------8---5|
E|---------------------------------------------------------------------6---3|
who raped the promqueen,he did he did,yeah right she was havin a ball
REPEAT CHORUS AGAIN still a step higher but change ending too:
e|----------------------------------|-------------------------------
B|----------------------------------|-------------------------------
G|5---------------------------------|-------------------------------
D|5--------------------------8--5--7|-5/7-7-7--75/7-7-7--75/7-7-7-
A|3--------------------------8--5--7|-5/7-7-7--75/7-7-7--75/7-7-7-
E|---------------------------6--3--5|-3/5-5-5--53/5-5-5--73/5-5-5-
yeah right she was havin a ball
outro:
e|-----------------------------------|-------------|---------|
B|-----------------------------------|-------------|---------|
G|-7---------------------------------|-------------|---------|
D|-7---------------------------------|--2-2-----2--|-7---7---|
A|-5---------------------------------|--0-0-----0--|-5---5---|
E|-----------------------------------|------3_4----|---------|
well she was havin a ball...ect. | above 8x |

| _ bend to following note
| / slide up
| slide down
| h hammer-on
| p pull-off
| ~ vibrato
| + harmonic
| x Mute note

  AMAZON PICKS


Wreckingpit - The Psychobilly Homepage December 2017
[Credits] [Link] [Contact] [FAQ]