wreckingpit - The Psychobilly Homepage
The Psychobilly Homepage December 12, 2017, 9:55 am
> Home > Tabs > Nekromantix - Gargoyles over Copenhagen
MAIN MENU
[Bands]
[Concerts]
[Flyers]
[Forum]
[Gallery]
[Links]
[Lyrics]
[News]
[Pictures]
[Reviews]
[Shop]
[Sounds]
[Tabs]
[Tattoos]

Search
wreckingpit.com:

PSYCHOBILLY TAB

Nekromantix - Gargoyles over Copenhagen


Instrument: bass

Cm Bb
E|---------------------|---------------------|---------------------|---------------------|
B|---------------------|---------------------|---------------------|---------------------|
G|---------------------|---------------------|---------------------|---------------------|
D|-10-8-10-8-10-8-10-8-|-10-8-10-8-10-8-10-8-|-10-8-10-8-10-8-10-8-|-10-8-10-8-10-8-10-8-|
A|---------------------|---------------------|---------------------|---------------------|
E|---------------------|---------------------|---------------------|---------------------|
| | | | |
G|---------------------|---------------------|---------------------|---------------------|
D|---------------------|---------------------|---------------------|---------------------|
A|-3----3----3----3----|-3----3----3----3----|-1----1----1----1----|-1----1----1----1----|
E|---------------------|---------------------|---------------------|---------------------|

Eb Ab F
E|---------------------|---------------------|-----------------|------------------|
B|---------------------|---------------------|-----------------|------------------|
G|---------------------|---------------------|---------5-5-----|------(10)--------|
D|-10-8-10-8-10-8-10-8-|-10-8-10-8-10-8-10-8-|-6-6-8-8-----8-6-|-------10---10----|
A|---------------------|---------------------|-----------------|-8-8-8---------8--|
E|---------------------|---------------------|-----------------|------------------|
| | | | |
G|---------------------|---------------------|-----------------|------------------|
D|-1----1----1----1----|-1----1----1----1----|-----------------|-3---3---3---3----|
A|---------------------|---------------------|-----------------|------------------|
E|---------------------|---------------------|-4---4---4---4---|------------------|

Cm Bb
I'm leaving town, just wanna get away
Eb Ab F
from politics and stupid rules and the eternal love war
Cm Bb
A life in boredom is too high a price to pay
Eb Ab F
I'm headed in no direction, just away from before

Cm Bb
That's when the sky turned jet-black
Eb Ab F
Eyes are watching from above and it ain't bad weather, it's a gargoyle attack

Cm
Gargoyles - Yeah yeah yeah
Bb
Gargoyles - Yeah yeah yeah
Eb
Gargoyles - Yeah yeah yeah
Ab F
Gargoyles over Copenhagen

Bass in chorus (variations may occur):
G|-------------|-------------|-------8-----|-------8-----|
D|-------------|-------------|----8-----8--|----8-----8--|
A|-3--3--3--3--|-3--3--3--3--|-6-----------|-6-----------|
E|-------------|-------------|-------------|-------------|

G|-------8-----|-------8-----|-------------|-------------|
D|----8-----8--|----8-----8--|-------------|-------------|
A|-6-----------|-6-----------|-------------|-------------|
E|-------------|-------------|-4--4--4--4--|-1--1--1--1--|


I'm trying to escape, I'm on the run
from these hellsent creatures, they are all over me
Please help me someone, dial 911
The invasion has begun, this is the end of humanity

Those years of waiting hasn't been in vain
They're leaving their bservation posts for the final take-over, they want world domain

Gargoyles - Yeah yeah yeah
Gargoyles - Yeah yeah yeah
Gargoyles - Yeah yeah yeah
Gargoyles over Copenhagen

(Solo)

Dm F G
G|-------0--2--|-------0--2--|-------0--2--|-----------|
D|-0--3--------|-0--3--------|-0--3--------|-----------|
A|-------------|-------------|-------------|-----------|
E|-------------|-------------|-------------|-1----3----|

Dm F G
G|-------0--2--|-------0--2--|-------0--2--|-----------|
D|-0--3--------|-0--3--------|-0--3--------|-----------|
A|-------------|-------------|-------------|-----------|
E|-------------|-------------|-------------|-1----3----|

Dm F G
G|-------0--2--|-------0--2--|-------0--2--|-----------|
D|-0--3--------|-0--3--------|-0--3--------|-----------|
A|-------------|-------------|-------------|-----------|
E|-------------|-------------|-------------|-1----3----|

Dm F G F G
G|-------0--2--|-------0--2--|-------0--2--|-----------|-----------|
D|-0--3--------|-0--3--------|-0--3--------|-----------|-----------|
A|-------------|-------------|-------------|-----------|-----------|
E|-------------|-------------|-------------|-1----3----|-1----3----|

Gargoyles - Yeah yeah yeah
Gargoyles - Yeah yeah yeah
Gargoyles - Yeah yeah yeah
Gargoyles over Copenhagen

  AMAZON PICKS


Wreckingpit - The Psychobilly Homepage December 2017
[Credits] [Link] [Contact] [FAQ]