wreckingpit - The Psychobilly Homepage
The Psychobilly Homepage December 14, 2017, 2:14 am
> Home > Tabs > Nekromantix - Save my grave
MAIN MENU
[Bands]
[Concerts]
[Flyers]
[Forum]
[Gallery]
[Links]
[Lyrics]
[News]
[Pictures]
[Reviews]
[Shop]
[Sounds]
[Tabs]
[Tattoos]

Search
wreckingpit.com:

PSYCHOBILLY TAB

Nekromantix - Save my grave


Instrument: guitar

- Of course none of this is 100% correct due to the many fills and
variations in the dynamics, but still it should be a pretty good guide-line
for those who have the courage to try it out (and sing in danish)


Bass line:

G|--------|------------|------------|------------|------------|
D|--------|------------|------------|------------|------------|
A|--2--3--|------------|------2--3--|------------|------2--3--|
E|--------|--0---2--3--|--0---------|--0---2--3--|--0---------|

Guitar Fill 1

E|---------------|---------------|---------------|---------------|
B|---------------|---------------|---------------|---------------|
G|---------------|--11b(12)----7-|--7b(9)--------|---------------|
D|-------------9-|---------------|---------------|---------------|
A|---------------|---------------|---------------|---------------|
E|---------------|---------------|---------------|---------------|

Guitar, Verse:

E|---------------|----------------|---------------|----------------|
B|---------------|----------------|---------------|----------------|
G|---------------|----------------|---------------|----------------|
D|---------------|----------------|---------------|----------------|
A|------2-3-2-3--|----------------|------2-3-2-3--|----------------|
E|--0------------|--0--0-2-3-2-3--|--0------------|--0--0-2-3-2-3--|

Jeg ligger under l?get - Kisten den er m?rk og klam

A5 E5
Kun rotter, flagermus og orme kan h?re min klagesang

Guitar, Chorus:

A5 G5 E5
E|---------|---------|---------------|------------|
B|---------|---------|---------------|------------|
G|---------|---------|---------------|------------|
D|--7------|--5------|---------------|------------|
A|--7------|--5------|--2---2-3-2-3--|--2---------|
E|--5------|--3------|--0------------|--0---2--3--|

A5 G5 E5
So won't you sa- ve my grave
A5 G5 E5
Oh, won't you sa- ve my grave

Blandt kors og gamle grave p? assistenskirkeg?rden
Jeg er d?d af druk, AIDS, lungekr?ft og maves?r

So won't you save my grave
Oh, won't you save my grave

Solo (Just bass for the first 8 measures):

Em
G|--------------|--------------|--------------|--------------|
D|--------------|--------------|--------------|--------------|
A|--------0--2--|--------0--2--|--------0--2--|--------0--2--|
E|--0--3--------|--0--3--------|--0--3--------|--0--3--------|

Am Em
G|--------------|--------------|--------------|--------------|
D|--------0--2--|--------0--2--|--------------|--------------|
A|--0--3--------|--0--3--------|--------0--2--|--------0--2--|
E|--------------|--------------|--0--3--------|--0--3--------|

A G Em
E|---------------------|--------------|---------------------|--------------------------|
B|---------------------|--------------|---------------------|--------------------------|
G|----------0-2-2---0--|--------------|---------------------|--------------------------|
D|------0-2-------2----|--------------|-----5-5-5----7-7-7--|-----5-5/---7b-7b--5-7-5--|
A|--0------------------|--5--4--5--4--|-----5-5-5----7-7-7--|-----5-5------------------|
E|---------------------|--3--2--3--2--|-----3-3-3----5-5-5--|-----3-3------------------|
| |
| |
G|---------------------|--------------|---------------------|--------------------------|
D|---------------------|--------------|---------------------|--------------------------|
A|---------------------|--------------|-----------0--2------|------------0-------2-----|
E|--5---5-----5---5----|--3--2--3--2--|--0--3---------------|--0--3--------------------|

A G Em
E|---------------------|--------------|---------------------|--------------------------|
B|---------------------|--------------|---------------------|--------------------------|
G|----------0-2-2---0--|--------------|---------------------|--------------------------|
D|------0-2-------2----|--------------|-----5-5-5----7-7-7--|-----5-5/---7b-7b--5-7-5--|
A|--0------------------|--------3--5--|-----5-5-5----7-7-7--|-----5-5------------------|
E|---------------------|--3--5--------|-----3-3-3----5-5-5--|-----3-3------------------|
| |
| |
G|---------------------|--------------|---------------------|--------------------------|
D|---------------------|--------------|---------------------|--------------------------|
A|---------------------|--------------|-----------0--2------|------------0-------2-----|
E|--5---5-----5---5----|--3--2--3--2--|--0--3---------------|--0--3--------------------|


(2 times)

E5 A5 G5
E|--12-12-12-12-12-12-12-12-12-12-12-12--|--12-12-12-12-12-12--------|
B|---------------------------------------|---------------------------|
G|---------------------------------------|---------------------------|
D|---------------------------------------|---------------------7--5--|
A|---------------------------------------|---------------------7--5--|
E|---------------------------------------|---------------------5--3--|
| |
| |
G|---------------------------------------|---------------------------|
D|--2--2--2--2--2--2--2--2--2--2--2--2---|--2--2--2--2--2--2---------|
A|---------------------------------------|---------------------0-----|
E|---------------------------------------|------------------------3--|


A5
E|--------------|--------------|
B|--------------|--------------|
G|--------------|--------------|
D|--7-----------|--5/7---------|
A|--7-----------|--5/7---------|
E|--5-----------|--3/5---------|
| |
| |
G|--------------|--------------|
D|--------------|--------------|
A|--------------|--------------|
E|--5--5--5--5--|--5--5--5--5--|


E5 A5 G5
E|--12-12-12-12-12-12-12-12-12-12-12-12--|--12-12-12-12-12-12--------|
B|---------------------------------------|---------------------------|
G|---------------------------------------|---------------------------|
D|---------------------------------------|---------------------7--5--|
A|---------------------------------------|---------------------7--5--|
E|---------------------------------------|---------------------5--3--|
| |
| |
G|---------------------------------------|---------------------------|
D|--2--2--2--2--2--2--2--2--2--2--2--2---|--2--2--2--2--2--2---------|
A|---------------------------------------|---------------------0-----|
E|---------------------------------------|------------------------3--|


So won't you save my grave
Oh, won't you save my grave

Nu er jeg begravet, folk er g?et og kirken er tom
Bevar min grav for evigt er det eneste jeg be'r jer om

So won't you save my grave
Oh, won't you save my grave (2)



Guitar Fill 2

D|--------------|
A|--------0--2--|
E|--0--3--------|



Play the |A| - |G| - |Em| - |Em|-part from the solo


Save my grave
Oh, won't you save my grave (2)


Play the |A| - |G| - |Em| - |Em|-part from the solo again

  AMAZON PICKS


Wreckingpit - The Psychobilly Homepage December 2017
[Credits] [Link] [Contact] [FAQ]