wreckingpit - The Psychobilly Homepage [ Advertisement Info ]
The Psychobilly Homepage December 12, 2017, 2:09 pm
> Home > Tabs > Nekromantix - Nekrofilia
MAIN MENU
[Bands]
[Concerts]
[Flyers]
[Forum]
[Gallery]
[Links]
[Lyrics]
[News]
[Pictures]
[Reviews]
[Shop]
[Sounds]
[Tabs]
[Tattoos]

Search
wreckingpit.com:

PSYCHOBILLY TAB

Nekromantix - Nekrofilia


Instrument: bass

Bass-tab:

Intro/Verse:
Am F
G|------------------------|--------------------------|
D|------------------------|--------------------------|
A|------------------------|--------------------------|
E|-5--5--5--5--5--5--5--5-|-1--1--1--1--1--1--1--1---|


Chorus:
C G F# F
G|--------------------------|--------------------------|-------------------|
D|--------------------------|--------------------------|-------------------|
A|--3--3--3--3--3--3--3--3--|--------------------------|----3---3---3---3--|
E|--------------------------|--3--3--3--3--3--3--3--2--|--1---1---1---1----|

Am G
G|------------|------------|
D|------------|------------|
A|------------|-------3--5-|
E|-5--5--5--5-|-3--1-------|


Solo:
Am F
G|--------------------------|--------------------------|
D|--------------------------|--------------------------|
A|--0--3--5--7--0--2--5--7--|--8--7--5--3--8--7--5--3--|
E|--------------------------|--------------------------|

C G F# F
G|--------------------------|--------------------------|-----------------------|
D|-----2--5--2-----2--3--4--|--------------------------|-----------------------|
A|--3-----------3-----------|-----2--3--4--5--6--5--4--|--3-----3-----3-----3--|
E|--------------------------|--3-----------------------|-----1-----1-----1-----|

  AMAZON PICKS


Wreckingpit - The Psychobilly Homepage December 2017
[Credits] [Link] [Contact] [FAQ]