wreckingpit - The Psychobilly Homepage
The Psychobilly Homepage December 16, 2017, 9:05 am
> Home > Tabs > Long Tall Texans - Get Back Wetback
MAIN MENU
[Bands]
[Concerts]
[Flyers]
[Forum]
[Gallery]
[Links]
[Lyrics]
[News]
[Pictures]
[Reviews]
[Shop]
[Sounds]
[Tabs]
[Tattoos]

Search
wreckingpit.com:

PSYCHOBILLY TAB

Long Tall Texans - Get Back Wetback

Tabbed by: Manuel Moritz
Emailaddress: a.k.t.i@gmx.at
Instrument: bass

Intro:
---------------------------------------------------------
---------------------------------------------------------
-0---0-3------------0--0-3------------0--0-3---------
---3-------3322------3------3322------3-----3322---

-------------------------
-------------------------
-0---0-3----0---0-3----
---3-----------3--------


Verse 1 & 2:
-----------------2---------------------2---------------------2------------
------2-----0-3---3--------2-----0-3---3---------2----0-3--3------------
-0-3---3---------------0-3---3---------------0-3---3----------------------
---------------------------------------------------------------------------

---------------------------------2------------------------------------------
-----------------------2----0-3---3-----------------------2222-20-------
--3333--2222---0-3---3-------------3333-2222-3333-----------32-----
----------------------------------------------------------------------------



Chorus:
-----------------------------------------------------------------
--------------------------------------------------2222-20-------
-0--0-3----------0--0-3--------0--0-3-------------------32----
---3------3322----3-----3322---3-----3322-------------------

-----------------------------------------------------------------
--------------------------------------------------2222-20-------
-0--0-3----------0--0-3--------0--0-3-------------------32----
---3------3322----3-----3322---3-----3322-------------------

Verse 3:
-----------------2---------------------2---------------------2------------
------2-----0-3---3--------2-----0-3---3---------2----0-3--3------------
-0-3---3---------------0-3---3---------------0-3---3----------------------
---------------------------------------------------------------------------

----------------------------------------------
--------------------------2222-20---------
--3333--2222---3333------------32--------
----------------------------------------------

Outro:
----------------------------------------------------------------
----------------------------------------------2222-20---------
--0--0 3--------0--0-3-------0--0-3-----------------32---2--
----3-----3322---3----3322---3----3322---------------------



Intro
Verse 1
Chorus
Verse 2
Chorus
Verse 3
Chorus
Outro

  AMAZON PICKS


Wreckingpit - The Psychobilly Homepage December 2017
[Credits] [Link] [Contact] [FAQ]